  0
SECTION
  2
HEADER
  9
$ACADVER
  1
AC1009
  9
$INSBASE
 10
0.0
 20
0.0
 30
0.0
  9
$EXTMIN
 10
40.866722
 20
-283.300305
 30
-74.895014
  9
$EXTMAX
 10
190.866722
 20
-148.060969
 30
70.104986
  9
$LIMMIN
 10
0.0
 20
0.0
  9
$LIMMAX
 10
500.0
 20
500.0
  9
$ORTHOMODE
 70
     0
  9
$REGENMODE
 70
     1
  9
$FILLMODE
 70
     1
  9
$QTEXTMODE
 70
     0
  9
$MIRRTEXT
 70
     1
  9
$DRAGMODE
 70
     2
  9
$LTSCALE
 40
1.0
  9
$OSMODE
 70
    41
  9
$ATTMODE
 70
     1
  9
$TEXTSIZE
 40
2.5
  9
$TRACEWID
 40
1.0
  9
$TEXTSTYLE
  7
STANDARD
  9
$CLAYER
  8
0
  9
$CELTYPE
  6
BYLAYER
  9
$CECOLOR
 62
   256
  9
$DIMSCALE
 40
1.0
  9
$DIMASZ
 40
2.5
  9
$DIMEXO
 40
0.625
  9
$DIMDLI
 40
3.75
  9
$DIMRND
 40
0.0
  9
$DIMDLE
 40
0.0
  9
$DIMEXE
 40
1.25
  9
$DIMTP
 40
0.0
  9
$DIMTM
 40
0.0
  9
$DIMTXT
 40
2.5
  9
$DIMCEN
 40
2.5
  9
$DIMTSZ
 40
0.0
  9
$DIMTOL
 70
     0
  9
$DIMLIM
 70
     0
  9
$DIMTIH
 70
     1
  9
$DIMTOH
 70
     0
  9
$DIMSE1
 70
     0
  9
$DIMSE2
 70
     0
  9
$DIMTAD
 70
     1
  9
$DIMZIN
 70
     8
  9
$DIMBLK
  1

  9
$DIMASO
 70
     1
  9
$DIMSHO
 70
     1
  9
$DIMPOST
  1

  9
$DIMAPOST
  1

  9
$DIMALT
 70
     0
  9
$DIMALTD
 70
     2
  9
$DIMALTF
 40
0.0394
  9
$DIMLFAC
 40
1.0
  9
$DIMTOFL
 70
     1
  9
$DIMTVP
 40
1.0
  9
$DIMTIX
 70
     0
  9
$DIMSOXD
 70
     0
  9
$DIMSAH
 70
     0
  9
$DIMBLK1
  1

  9
$DIMBLK2
  1

  9
$DIMSTYLE
  2
ISO-25
  9
$DIMCLRD
 70
     0
  9
$DIMCLRE
 70
     0
  9
$DIMCLRT
 70
     0
  9
$DIMTFAC
 40
1.0
  9
$DIMGAP
 40
0.625
  9
$LUNITS
 70
     2
  9
$LUPREC
 70
     0
  9
$AXISMODE
 70
     0
  9
$AXISUNIT
 10
0.0
 20
0.0
  9
$SKETCHINC
 40
1.0
  9
$FILLETRAD
 40
0.0
  9
$AUNITS
 70
     0
  9
$AUPREC
 70
     0
  9
$MENU
  1
acad
  9
$ELEVATION
 40
0.0
  9
$PELEVATION
 40
0.0
  9
$THICKNESS
 40
0.0
  9
$LIMCHECK
 70
     0
  9
$BLIPMODE
 70
     1
  9
$CHAMFERA
 40
10.0
  9
$CHAMFERB
 40
10.0
  9
$SKPOLY
 70
     0
  9
$TDCREATE
 40
2451124.741038310
  9
$TDUPDATE
 40
2451174.814687489
  9
$TDINDWG
 40
0.0211907292
  9
$TDUSRTIMER
 40
0.0211791551
  9
$USRTIMER
 70
     1
  9
$ANGBASE
 50
0.0
  9
$ANGDIR
 70
     0
  9
$PDMODE
 70
     0
  9
$PDSIZE
 40
0.0
  9
$PLINEWID
 40
0.0
  9
$COORDS
 70
     1
  9
$SPLFRAME
 70
     0
  9
$SPLINETYPE
 70
     6
  9
$SPLINESEGS
 70
     8
  9
$ATTDIA
 70
     0
  9
$ATTREQ
 70
     1
  9
$HANDLING
 70
     1
  9
$HANDSEED
  5
3DC
  9
$SURFTAB1
 70
     7
  9
$SURFTAB2
 70
     8
  9
$SURFTYPE
 70
     6
  9
$SURFU
 70
     6
  9
$SURFV
 70
     6
  9
$UCSNAME
  2

  9
$UCSORG
 10
0.0
 20
0.0
 30
0.0
  9
$UCSXDIR
 10
1.0
 20
0.0
 30
0.0
  9
$UCSYDIR
 10
0.0
 20
1.0
 30
0.0
  9
$PUCSNAME
  2

  9
$PUCSORG
 10
0.0
 20
0.0
 30
0.0
  9
$PUCSXDIR
 10
1.0
 20
0.0
 30
0.0
  9
$PUCSYDIR
 10
0.0
 20
1.0
 30
0.0
  9
$USERI1
 70
     0
  9
$USERI2
 70
     0
  9
$USERI3
 70
     0
  9
$USERI4
 70
     0
  9
$USERI5
 70
     0
  9
$USERR1
 40
0.0
  9
$USERR2
 40
0.0
  9
$USERR3
 40
0.0
  9
$USERR4
 40
0.0
  9
$USERR5
 40
0.0
  9
$WORLDVIEW
 70
     1
  9
$SHADEDGE
 70
     3
  9
$SHADEDIF
 70
    70
  9
$TILEMODE
 70
     1
  9
$MAXACTVP
 70
    16
  9
$PINSBASE
 10
0.0
 20
0.0
 30
0.0
  9
$PLIMCHECK
 70
     0
  9
$PEXTMIN
 10
1.000000E+20
 20
1.000000E+20
 30
1.000000E+20
  9
$PEXTMAX
 10
-1.000000E+20
 20
-1.000000E+20
 30
-1.000000E+20
  9
$PLIMMIN
 10
0.0
 20
0.0
  9
$PLIMMAX
 10
420.0
 20
297.0
  9
$UNITMODE
 70
     0
  9
$VISRETAIN
 70
     0
  9
$PLINEGEN
 70
     0
  9
$PSLTSCALE
 70
     1
  9
$TREEDEPTH
 70
  3020
  9
$DWGCODEPAGE
  3
dos850
  0
ENDSEC
  0
SECTION
  2
TABLES
  0
TABLE
  2
VPORT
 70
     1
  0
VPORT
  2
*ACTIVE
 70
     0
 10
0.0
 20
0.0
 11
1.0
 21
1.0
 12
255.086405
 22
-24.721325
 13
0.0
 23
0.0
 14
10.0
 24
10.0
 15
10.0
 25
10.0
 16
-1.0
 26
-1.0
 36
1.0
 17
0.0
 27
0.0
 37
0.0
 40
270.806586
 41
1.357349
 42
50.0
 43
0.0
 44
0.0
 50
0.0
 51
0.0
 71
     0
 72
   100
 73
     1
 74
     1
 75
     0
 76
     0
 77
     0
 78
     0
  0
ENDTAB
  0
TABLE
  2
LTYPE
 70
     1
  0
LTYPE
  2
CONTINUOUS
 70
    64
  3
Solid line
 72
    65
 73
     0
 40
0.0
  0
ENDTAB
  0
TABLE
  2
LAYER
 70
     3
  0
LAYER
  2
0
 70
     0
 62
     7
  6
CONTINUOUS
  0
LAYER
  2
I-HOLD
 70
    64
 62
    40
  6
CONTINUOUS
  0
LAYER
  2
I-ROLL
 70
    64
 62
     7
  6
CONTINUOUS
  0
ENDTAB
  0
TABLE
  2
STYLE
 70
     1
  0
STYLE
  2
STANDARD
 70
    64
 40
0.0
 41
1.0
 50
0.0
 71
     0
 42
2.5
  3
ISOCP
  4

  0
ENDTAB
  0
TABLE
  2
VIEW
 70
     0
  0
ENDTAB
  0
TABLE
  2
UCS
 70
     0
  0
ENDTAB
  0
TABLE
  2
APPID
 70
     1
  0
APPID
  2
ACAD
 70
     0
  0
ENDTAB
  0
TABLE
  2
DIMSTYLE
 70
     8
  0
DIMSTYLE
  2
STANDARD
 70
     0
  3

  4

  5

  6

  7

 40
1.0
 41
0.18
 42
0.0625
 43
0.38
 44
0.18
 45
0.0
 46
0.0
 47
0.0
 48
0.0
140
0.18
141
0.09
142
0.0
143
25.4
144
1.0
145
0.0
146
1.0
147
0.09
 71
     0
 72
     0
 73
     1
 74
     1
 75
     0
 76
     0
 77
     0
 78
     0
170
     0
171
     2
172
     0
173
     0
174
     0
175
     0
176
     0
177
     0
178
     0
  0
DIMSTYLE
  2
ISO-25
 70
     0
  3

  4

  5

  6

  7

 40
1.0
 41
2.5
 42
0.625
 43
3.75
 44
1.25
 45
0.0
 46
0.0
 47
0.0
 48
0.0
140
2.5
141
2.5
142
0.0
143
0.0394
144
1.0
145
1.0
146
1.0
147
0.625
 71
     0
 72
     0
 73
     1
 74
     0
 75
     0
 76
     0
 77
     1
 78
     8
170
     0
171
     2
172
     1
173
     0
174
     0
175
     0
176
     0
177
     0
178
     0
  0
DIMSTYLE
  2
ISO-35
 70
     0
  3

  4

  5

  6

  7

 40
1.0
 41
3.5
 42
0.875
 43
5.25
 44
1.75
 45
0.0
 46
0.0
 47
0.0
 48
0.0
140
3.5
141
3.5
142
0.0
143
0.0394
144
1.0
145
1.4
146
1.0
147
0.875
 71
     0
 72
     0
 73
     1
 74
     0
 75
     0
 76
     0
 77
     1
 78
     8
170
     0
171
     2
172
     1
173
     0
174
     0
175
     0
176
     0
177
     0
178
     0
  0
DIMSTYLE
  2
ISO-5
 70
     0
  3

  4

  5

  6

  7

 40
1.0
 41
5.0
 42
1.25
 43
7.5
 44
2.5
 45
0.0
 46
0.0
 47
0.0
 48
0.0
140
5.0
141
5.0
142
0.0
143
0.0394
144
1.0
145
2.0
146
1.0
147
1.25
 71
     0
 72
     0
 73
     1
 74
     0
 75
     0
 76
     0
 77
     1
 78
     8
170
     0
171
     2
172
     1
173
     0
174
     0
175
     0
176
     0
177
     0
178
     0
  0
DIMSTYLE
  2
ISO-7
 70
     0
  3

  4

  5

  6

  7

 40
1.0
 41
7.0
 42
1.75
 43
10.5
 44
3.5
 45
0.0
 46
0.0
 47
0.0
 48
0.0
140
7.0
141
7.0
142
0.0
143
0.0394
144
1.0
145
2.8
146
1.0
147
1.75
 71
     0
 72
     0
 73
     1
 74
     0
 75
     0
 76
     0
 77
     1
 78
     8
170
     0
171
     2
172
     1
173
     0
174
     0
175
     0
176
     0
177
     0
178
     0
  0
DIMSTYLE
  2
ISO1
 70
     0
  3

  4

  5

  6

  7

 40
1.0
 41
10.0
 42
2.5
 43
15.0
 44
5.0
 45
0.0
 46
0.0
 47
0.0
 48
0.0
140
10.0
141
10.0
142
0.0
143
0.0394
144
1.0
145
4.0
146
1.0
147
2.5
 71
     0
 72
     0
 73
     1
 74
     0
 75
     0
 76
     0
 77
     1
 78
     8
170
     0
171
     2
172
     1
173
     0
174
     0
175
     0
176
     0
177
     0
178
     0
  0
DIMSTYLE
  2
ISO1-4
 70
     0
  3

  4

  5

  6

  7

 40
1.0
 41
14.0
 42
3.5
 43
21.0
 44
7.0
 45
0.0
 46
0.0
 47
0.0
 48
0.0
140
14.0
141
14.0
142
0.0
143
0.0394
144
1.0
145
5.6
146
1.0
147
3.5
 71
     0
 72
     0
 73
     1
 74
     0
 75
     0
 76
     0
 77
     1
 78
     8
170
     0
171
     2
172
     1
173
     0
174
     0
175
     0
176
     0
177
     0
178
     0
  0
DIMSTYLE
  2
ISO2
 70
     0
  3

  4

  5

  6

  7

 40
1.0
 41
20.0
 42
5.0
 43
30.0
 44
10.0
 45
0.0
 46
0.0
 47
0.0
 48
0.0
140
20.0
141
20.0
142
0.0
143
0.0394
144
1.0
145
8.0
146
1.0
147
5.0
 71
     0
 72
     0
 73
     1
 74
     0
 75
     0
 76
     0
 77
     1
 78
     8
170
     0
171
     2
172
     1
173
     0
174
     0
175
     0
176
     0
177
     0
178
     0
  0
ENDTAB
  0
ENDSEC
  0
SECTION
  2
BLOCKS
  0
ENDSEC
  0
SECTION
  2
ENTITIES
  0
VIEWPORT
  8
0
  5
22
 67
     1
 68
     1
 10
261.517699
 20
148.5
 30
0.0
 40
523.035398
 41
297.0
 69
     1
1001
ACAD
1000
MVIEW
1002
{
1070
    16
1010
0.0
1020
0.0
1030
0.0
1010
0.0
1020
0.0
1030
1.0
1040
0.0
1040
297.0
1040
261.517699
1040
148.5
1040
50.0
1040
0.0
1040
0.0
1070
     0
1070
   100
1070
     1
1070
     1
1070
     0
1070
     0
1070
     0
1070
     0
1040
0.0
1040
0.0
1040
0.0
1040
1.0
1040
1.0
1040
10.0
1040
10.0
1070
     0
1002
{
1002
}
1002
}
  0
LINE
  8
I-HOLD
  5
39
 10
40.866722
 20
-148.060969
 30
50.0
 11
40.866722
 21
-233.060969
 31
50.0
  0
ARC
  8
I-HOLD
  5
3B
 10
50.866722
 20
50.0
 30
148.060969
 40
10.0
 50
0.0
 51
180.0
210
0.0
220
-1.0
230
0.0
  0
ARC
  8
I-HOLD
  5
3D
 10
50.866722
 20
0.0
 30
148.060969
 40
10.0
 50
180.0
 51
0.0
210
0.0
220
-1.0
230
0.0
  0
ARC
  8
I-HOLD
  5
3E
 10
50.866722
 20
50.0
 30
233.060969
 40
10.0
 50
0.0
 51
180.0
210
0.0
220
-1.0
230
0.0
  0
LINE
  8
I-HOLD
  5
3F
 10
40.866722
 20
-148.060969
 30
50.0
 11
40.866722
 21
-148.060969
 31
0.0
210
0.0
220
-1.0
230
0.0
  0
LINE
  8
I-HOLD
  5
41
 10
40.866722
 20
-233.060969
 30
50.0
 11
40.866722
 21
-233.060969
 31
0.0
210
0.0
220
-1.0
230
0.0
  0
ARC
  8
I-HOLD
  5
42
 10
50.866722
 20
0.0
 30
233.060969
 40
10.0
 50
180.0
 51
0.0
210
0.0
220
-1.0
230
0.0
  0
POLYLINE
  8
I-HOLD
  5
B3
 66
     1
 10
0.0
 20
0.0
 30
0.0
 70
    16
 71
    13
 72
     9
  0
VERTEX
  8
I-HOLD
  5
B4
 10
60.866722
 20
-233.060969
 30
50.0
 70
    64
  0
VERTEX
  8
I-HOLD
  5
B5
 10
60.105518
 20
-233.060969
 30
53.826834
 70
    64
  0
VERTEX
  8
I-HOLD
  5
B6
 10
57.93779
 20
-233.060969
 30
57.071068
 70
    64
  0
VERTEX
  8
I-HOLD
  5
B7
 10
54.693557
 20
-233.060969
 30
59.238795
 70
    64
  0
VERTEX
  8
I-HOLD
  5
B8
 10
50.866722
 20
-233.060969
 30
60.0
 70
    64
  0
VERTEX
  8
I-HOLD
  5
B9
 10
47.039888
 20
-233.060969
 30
59.238795
 70
    64
  0
VERTEX
  8
I-HOLD
  5
BA
 10
43.795655
 20
-233.060969
 30
57.071068
 70
    64
  0
VERTEX
  8
I-HOLD
  5
BB
 10
41.627927
 20
-233.060969
 30
53.826834
 70
    64
  0
VERTEX
  8
I-HOLD
  5
BC
 10
40.866722
 20
-233.060969
 30
50.0
 70
    64
  0
VERTEX
  8
I-HOLD
  5
BD
 10
60.866722
 20
-239.531445
 30
49.148146
 70
    64
  0
VERTEX
  8
I-HOLD
  5
BE
 10
60.105518
 20
-240.521903
 30
52.844584
 70
    64
  0
VERTEX
  8
I-HOLD
  5
BF
 10
57.93779
 20
-241.361572
 30
55.978273
 70
    64
  0
VERTEX
  8
I-HOLD
  5
C0
 10
54.693557
 20
-241.922622
 30
58.072137
 70
    64
  0
VERTEX
  8
I-HOLD
  5
C1
 10
50.866722
 20
-242.119636
 30
58.807404
 70
    64
  0
VERTEX
  8
I-HOLD
  5
C2
 10
47.039888
 20
-241.922622
 30
58.072137
 70
    64
  0
VERTEX
  8
I-HOLD
  5
C3
 10
43.795655
 20
-241.361572
 30
55.978273
 70
    64
  0
VERTEX
  8
I-HOLD
  5
C4
 10
41.627927
 20
-240.521903
 30
52.844584
 70
    64
  0
VERTEX
  8
I-HOLD
  5
C5
 10
40.866722
 20
-239.531445
 30
49.148146
 70
    64
  0
VERTEX
  8
I-HOLD
  5
C6
 10
60.866722
 20
-245.560969
 30
46.650635
 70
    64
  0
VERTEX
  8
I-HOLD
  5
C7
 10
60.105518
 20
-247.474386
 30
49.964771
 70
    64
  0
VERTEX
  8
I-HOLD
  5
C8
 10
57.93779
 20
-249.096503
 30
52.774359
 70
    64
  0
VERTEX
  8
I-HOLD
  5
C9
 10
54.693557
 20
-250.180367
 30
54.651667
 70
    64
  0
VERTEX
  8
I-HOLD
  5
CA
 10
50.866722
 20
-250.560969
 30
55.310889
 70
    64
  0
VERTEX
  8
I-HOLD
  5
CB
 10
47.039888
 20
-250.180367
 30
54.651667
 70
    64
  0
VERTEX
  8
I-HOLD
  5
CC
 10
43.795655
 20
-249.096503
 30
52.774359
 70
    64
  0
VERTEX
  8
I-HOLD
  5
CD
 10
41.627927
 20
-247.474386
 30
49.964771
 70
    64
  0
VERTEX
  8
I-HOLD
  5
CE
 10
40.866722
 20
-245.560969
 30
46.650635
 70
    64
  0
VERTEX
  8
I-HOLD
  5
CF
 10
60.866722
 20
-250.738639
 30
42.67767
 70
    64
  0
VERTEX
  8
I-HOLD
  5
D0
 10
60.105518
 20
-253.444619
 30
45.38365
 70
    64
  0
VERTEX
  8
I-HOLD
  5
D1
 10
57.93779
 20
-255.738639
 30
47.67767
 70
    64
  0
VERTEX
  8
I-HOLD
  5
D2
 10
54.693557
 20
-257.271454
 30
49.210484
 70
    64
  0
VERTEX
  8
I-HOLD
  5
D3
 10
50.866722
 20
-257.809707
 30
49.748737
 70
    64
  0
VERTEX
  8
I-HOLD
  5
D4
 10
47.039888
 20
-257.271454
 30
49.210484
 70
    64
  0
VERTEX
  8
I-HOLD
  5
D5
 10
43.795655
 20
-255.738639
 30
47.67767
 70
    64
  0
VERTEX
  8
I-HOLD
  5
D6
 10
41.627927
 20
-253.444619
 30
45.38365
 70
    64
  0
VERTEX
  8
I-HOLD
  5
D7
 10
40.866722
 20
-250.738639
 30
42.67767
 70
    64
  0
VERTEX
  8
I-HOLD
  5
D8
 10
60.866722
 20
-254.711604
 30
37.5
 70
    64
  0
VERTEX
  8
I-HOLD
  5
D9
 10
60.105518
 20
-258.02574
 30
39.413417
 70
    64
  0
VERTEX
  8
I-HOLD
  5
DA
 10
57.93779
 20
-260.835329
 30
41.035534
 70
    64
  0
VERTEX
  8
I-HOLD
  5
DB
 10
54.693557
 20
-262.712636
 30
42.119398
 70
    64
  0
VERTEX
  8
I-HOLD
  5
DC
 10
50.866722
 20
-263.371858
 30
42.5
 70
    64
  0
VERTEX
  8
I-HOLD
  5
DD
 10
47.039888
 20
-262.712636
 30
42.119398
 70
    64
  0
VERTEX
  8
I-HOLD
  5
DE
 10
43.795655
 20
-260.835329
 30
41.035534
 70
    64
  0
VERTEX
  8
I-HOLD
  5
DF
 10
41.627927
 20
-258.02574
 30
39.413417
 70
    64
  0
VERTEX
  8
I-HOLD
  5
E0
 10
40.866722
 20
-254.711604
 30
37.5
 70
    64
  0
VERTEX
  8
I-HOLD
  5
E1
 10
60.866722
 20
-257.209115
 30
31.470476
 70
    64
  0
VERTEX
  8
I-HOLD
  5
E2
 10
60.105518
 20
-260.905553
 30
32.460934
 70
    64
  0
VERTEX
  8
I-HOLD
  5
E3
 10
57.93779
 20
-264.039242
 30
33.300603
 70
    64
  0
VERTEX
  8
I-HOLD
  5
E4
 10
54.693557
 20
-266.133106
 30
33.861652
 70
    64
  0
VERTEX
  8
I-HOLD
  5
E5
 10
50.866722
 20
-266.868373
 30
34.058667
 70
    64
  0
VERTEX
  8
I-HOLD
  5
E6
 10
47.039888
 20
-266.133106
 30
33.861652
 70
    64
  0
VERTEX
  8
I-HOLD
  5
E7
 10
43.795655
 20
-264.039242
 30
33.300603
 70
    64
  0
VERTEX
  8
I-HOLD
  5
E8
 10
41.627927
 20
-260.905553
 30
32.460934
 70
    64
  0
VERTEX
  8
I-HOLD
  5
E9
 10
40.866722
 20
-257.209115
 30
31.470476
 70
    64
  0
VERTEX
  8
I-HOLD
  5
EA
 10
60.866722
 20
-258.060969
 30
25.0
 70
    64
  0
VERTEX
  8
I-HOLD
  5
EB
 10
60.105518
 20
-261.887804
 30
25.0
 70
    64
  0
VERTEX
  8
I-HOLD
  5
EC
 10
57.93779
 20
-265.132037
 30
25.0
 70
    64
  0
VERTEX
  8
I-HOLD
  5
ED
 10
54.693557
 20
-267.299765
 30
25.0
 70
    64
  0
VERTEX
  8
I-HOLD
  5
EE
 10
50.866722
 20
-268.060969
 30
25.0
 70
    64
  0
VERTEX
  8
I-HOLD
  5
EF
 10
47.039888
 20
-267.299765
 30
25.0
 70
    64
  0
VERTEX
  8
I-HOLD
  5
F0
 10
43.795655
 20
-265.132037
 30
25.0
 70
    64
  0
VERTEX
  8
I-HOLD
  5
F1
 10
41.627927
 20
-261.887804
 30
25.0
 70
    64
  0
VERTEX
  8
I-HOLD
  5
F2
 10
40.866722
 20
-258.060969
 30
25.0
 70
    64
  0
VERTEX
  8
I-HOLD
  5
F3
 10
60.866722
 20
-257.209115
 30
18.529524
 70
    64
  0
VERTEX
  8
I-HOLD
  5
F4
 10
60.105518
 20
-260.905553
 30
17.539066
 70
    64
  0
VERTEX
  8
I-HOLD
  5
F5
 10
57.93779
 20
-264.039242
 30
16.699397
 70
    64
  0
VERTEX
  8
I-HOLD
  5
F6
 10
54.693557
 20
-266.133106
 30
16.138348
 70
    64
  0
VERTEX
  8
I-HOLD
  5
F7
 10
50.866722
 20
-266.868373
 30
15.941333
 70
    64
  0
VERTEX
  8
I-HOLD
  5
F8
 10
47.039888
 20
-266.133106
 30
16.138348
 70
    64
  0
VERTEX
  8
I-HOLD
  5
F9
 10
43.795655
 20
-264.039242
 30
16.699397
 70
    64
  0
VERTEX
  8
I-HOLD
  5
FA
 10
41.627927
 20
-260.905553
 30
17.539066
 70
    64
  0
VERTEX
  8
I-HOLD
  5
FB
 10
40.866722
 20
-257.209115
 30
18.529524
 70
    64
  0
VERTEX
  8
I-HOLD
  5
FC
 10
60.866722
 20
-254.711604
 30
12.5
 70
    64
  0
VERTEX
  8
I-HOLD
  5
FD
 10
60.105518
 20
-258.02574
 30
10.586583
 70
    64
  0
VERTEX
  8
I-HOLD
  5
FE
 10
57.93779
 20
-260.835329
 30
8.964466
 70
    64
  0
VERTEX
  8
I-HOLD
  5
FF
 10
54.693557
 20
-262.712636
 30
7.880602
 70
    64
  0
VERTEX
  8
I-HOLD
  5
100
 10
50.866722
 20
-263.371858
 30
7.5
 70
    64
  0
VERTEX
  8
I-HOLD
  5
101
 10
47.039888
 20
-262.712636
 30
7.880602
 70
    64
  0
VERTEX
  8
I-HOLD
  5
102
 10
43.795655
 20
-260.835329
 30
8.964466
 70
    64
  0
VERTEX
  8
I-HOLD
  5
103
 10
41.627927
 20
-258.02574
 30
10.586583
 70
    64
  0
VERTEX
  8
I-HOLD
  5
104
 10
40.866722
 20
-254.711604
 30
12.5
 70
    64
  0
VERTEX
  8
I-HOLD
  5
105
 10
60.866722
 20
-250.738639
 30
7.32233
 70
    64
  0
VERTEX
  8
I-HOLD
  5
106
 10
60.105518
 20
-253.444619
 30
4.61635
 70
    64
  0
VERTEX
  8
I-HOLD
  5
107
 10
57.93779
 20
-255.738639
 30
2.32233
 70
    64
  0
VERTEX
  8
I-HOLD
  5
108
 10
54.693557
 20
-257.271454
 30
0.789516
 70
    64
  0
VERTEX
  8
I-HOLD
  5
109
 10
50.866722
 20
-257.809707
 30
0.251263
 70
    64
  0
VERTEX
  8
I-HOLD
  5
10A
 10
47.039888
 20
-257.271454
 30
0.789516
 70
    64
  0
VERTEX
  8
I-HOLD
  5
10B
 10
43.795655
 20
-255.738639
 30
2.32233
 70
    64
  0
VERTEX
  8
I-HOLD
  5
10C
 10
41.627927
 20
-253.444619
 30
4.61635
 70
    64
  0
VERTEX
  8
I-HOLD
  5
10D
 10
40.866722
 20
-250.738639
 30
7.32233
 70
    64
  0
VERTEX
  8
I-HOLD
  5
10E
 10
60.866722
 20
-245.560969
 30
3.349365
 70
    64
  0
VERTEX
  8
I-HOLD
  5
10F
 10
60.105518
 20
-247.474386
 30
0.035229
 70
    64
  0
VERTEX
  8
I-HOLD
  5
110
 10
57.93779
 20
-249.096503
 30
-2.774359
 70
    64
  0
VERTEX
  8
I-HOLD
  5
111
 10
54.693557
 20
-250.180367
 30
-4.651667
 70
    64
  0
VERTEX
  8
I-HOLD
  5
112
 10
50.866722
 20
-250.560969
 30
-5.310889
 70
    64
  0
VERTEX
  8
I-HOLD
  5
113
 10
47.039888
 20
-250.180367
 30
-4.651667
 70
    64
  0
VERTEX
  8
I-HOLD
  5
114
 10
43.795655
 20
-249.096503
 30
-2.774359
 70
    64
  0
VERTEX
  8
I-HOLD
  5
115
 10
41.627927
 20
-247.474386
 30
0.035229
 70
    64
  0
VERTEX
  8
I-HOLD
  5
116
 10
40.866722
 20
-245.560969
 30
3.349365
 70
    64
  0
VERTEX
  8
I-HOLD
  5
117
 10
60.866722
 20
-239.531445
 30
0.851854
 70
    64
  0
VERTEX
  8
I-HOLD
  5
118
 10
60.105518
 20
-240.521903
 30
-2.844584
 70
    64
  0
VERTEX
  8
I-HOLD
  5
119
 10
57.93779
 20
-241.361572
 30
-5.978273
 70
    64
  0
VERTEX
  8
I-HOLD
  5
11A
 10
54.693557
 20
-241.922622
 30
-8.072137
 70
    64
  0
VERTEX
  8
I-HOLD
  5
11B
 10
50.866722
 20
-242.119636
 30
-8.807404
 70
    64
  0
VERTEX
  8
I-HOLD
  5
11C
 10
47.039888
 20
-241.922622
 30
-8.072137
 70
    64
  0
VERTEX
  8
I-HOLD
  5
11D
 10
43.795655
 20
-241.361572
 30
-5.978273
 70
    64
  0
VERTEX
  8
I-HOLD
  5
11E
 10
41.627927
 20
-240.521903
 30
-2.844584
 70
    64
  0
VERTEX
  8
I-HOLD
  5
11F
 10
40.866722
 20
-239.531445
 30
0.851854
 70
    64
  0
VERTEX
  8
I-HOLD
  5
120
 10
60.866722
 20
-233.060969
 30
0.0
 70
    64
  0
VERTEX
  8
I-HOLD
  5
121
 10
60.105518
 20
-233.060969
 30
-3.826834
 70
    64
  0
VERTEX
  8
I-HOLD
  5
122
 10
57.93779
 20
-233.060969
 30
-7.071068
 70
    64
  0
VERTEX
  8
I-HOLD
  5
123
 10
54.693557
 20
-233.060969
 30
-9.238795
 70
    64
  0
VERTEX
  8
I-HOLD
  5
124
 10
50.866722
 20
-233.060969
 30
-10.0
 70
    64
  0
VERTEX
  8
I-HOLD
  5
125
 10
47.039888
 20
-233.060969
 30
-9.238795
 70
    64
  0
VERTEX
  8
I-HOLD
  5
126
 10
43.795655
 20
-233.060969
 30
-7.071068
 70
    64
  0
VERTEX
  8
I-HOLD
  5
127
 10
41.627927
 20
-233.060969
 30
-3.826834
 70
    64
  0
VERTEX
  8
I-HOLD
  5
128
 10
40.866722
 20
-233.060969
 30
0.0
 70
    64
  0
SEQEND
  8
I-HOLD
  5
129
  0
3DFACE
  8
I-HOLD
  5
12A
 10
40.866722
 20
-148.060969
 30
50.0
 11
40.866722
 21
-233.060969
 31
50.0
 12
40.866722
 22
-233.060969
 32
0.0
 13
40.866722
 23
-148.060969
 33
0.0
  0
3DFACE
  8
I-HOLD
  5
12B
 10
60.866722
 20
-148.060969
 30
50.0
 11
60.866722
 21
-233.060969
 31
50.0
 12
60.866722
 22
-233.060969
 32
0.0
 13
60.866722
 23
-148.060969
 33
0.0
  0
POLYLINE
  8
I-HOLD
  5
12C
 66
     1
 10
0.0
 20
0.0
 30
0.0
 70
    16
 71
     2
 72
    13
  0
VERTEX
  8
I-HOLD
  5
12D
 10
40.866722
 20
-233.060969
 30
50.0
 70
    64
  0
VERTEX
  8
I-HOLD
  5
12E
 10
40.866722
 20
-239.531445
 30
49.148146
 70
    64
  0
VERTEX
  8
I-HOLD
  5
12F
 10
40.866722
 20
-245.560969
 30
46.650635
 70
    64
  0
VERTEX
  8
I-HOLD
  5
130
 10
40.866722
 20
-250.738639
 30
42.67767
 70
    64
  0
VERTEX
  8
I-HOLD
  5
131
 10
40.866722
 20
-254.711604
 30
37.5
 70
    64
  0
VERTEX
  8
I-HOLD
  5
132
 10
40.866722
 20
-257.209115
 30
31.470476
 70
    64
  0
VERTEX
  8
I-HOLD
  5
133
 10
40.866722
 20
-258.060969
 30
25.0
 70
    64
  0
VERTEX
  8
I-HOLD
  5
134
 10
40.866722
 20
-257.209115
 30
18.529524
 70
    64
  0
VERTEX
  8
I-HOLD
  5
135
 10
40.866722
 20
-254.711604
 30
12.5
 70
    64
  0
VERTEX
  8
I-HOLD
  5
136
 10
40.866722
 20
-250.738639
 30
7.32233
 70
    64
  0
VERTEX
  8
I-HOLD
  5
137
 10
40.866722
 20
-245.560969
 30
3.349365
 70
    64
  0
VERTEX
  8
I-HOLD
  5
138
 10
40.866722
 20
-239.531445
 30
0.851854
 70
    64
  0
VERTEX
  8
I-HOLD
  5
139
 10
40.866722
 20
-233.060969
 30
0.0
 70
    64
  0
VERTEX
  8
I-HOLD
  5
13A
 10
40.866722
 20
-233.060969
 30
50.0
 70
    64
  0
VERTEX
  8
I-HOLD
  5
13B
 10
40.866722
 20
-233.060969
 30
45.833333
 70
    64
  0
VERTEX
  8
I-HOLD
  5
13C
 10
40.866722
 20
-233.060969
 30
41.666667
 70
    64
  0
VERTEX
  8
I-HOLD
  5
13D
 10
40.866722
 20
-233.060969
 30
37.5
 70
    64
  0
VERTEX
  8
I-HOLD
  5
13E
 10
40.866722
 20
-233.060969
 30
33.333333
 70
    64
  0
VERTEX
  8
I-HOLD
  5
13F
 10
40.866722
 20
-233.060969
 30
29.166667
 70
    64
  0
VERTEX
  8
I-HOLD
  5
140
 10
40.866722
 20
-233.060969
 30
25.0
 70
    64
  0
VERTEX
  8
I-HOLD
  5
141
 10
40.866722
 20
-233.060969
 30
20.833333
 70
    64
  0
VERTEX
  8
I-HOLD
  5
142
 10
40.866722
 20
-233.060969
 30
16.666667
 70
    64
  0
VERTEX
  8
I-HOLD
  5
143
 10
40.866722
 20
-233.060969
 30
12.5
 70
    64
  0
VERTEX
  8
I-HOLD
  5
144
 10
40.866722
 20
-233.060969
 30
8.333333
 70
    64
  0
VERTEX
  8
I-HOLD
  5
145
 10
40.866722
 20
-233.060969
 30
4.166667
 70
    64
  0
VERTEX
  8
I-HOLD
  5
146
 10
40.866722
 20
-233.060969
 30
0.0
 70
    64
  0
SEQEND
  8
I-HOLD
  5
147
  0
POLYLINE
  8
I-HOLD
  5
148
 66
     1
 10
0.0
 20
0.0
 30
0.0
 70
    16
 71
     2
 72
    13
  0
VERTEX
  8
I-HOLD
  5
149
 10
60.866722
 20
-233.060969
 30
50.0
 70
    64
  0
VERTEX
  8
I-HOLD
  5
14A
 10
60.866722
 20
-239.531445
 30
49.148146
 70
    64
  0
VERTEX
  8
I-HOLD
  5
14B
 10
60.866722
 20
-245.560969
 30
46.650635
 70
    64
  0
VERTEX
  8
I-HOLD
  5
14C
 10
60.866722
 20
-250.738639
 30
42.67767
 70
    64
  0
VERTEX
  8
I-HOLD
  5
14D
 10
60.866722
 20
-254.711604
 30
37.5
 70
    64
  0
VERTEX
  8
I-HOLD
  5
14E
 10
60.866722
 20
-257.209115
 30
31.470476
 70
    64
  0
VERTEX
  8
I-HOLD
  5
14F
 10
60.866722
 20
-258.060969
 30
25.0
 70
    64
  0
VERTEX
  8
I-HOLD
  5
150
 10
60.866722
 20
-257.209115
 30
18.529524
 70
    64
  0
VERTEX
  8
I-HOLD
  5
151
 10
60.866722
 20
-254.711604
 30
12.5
 70
    64
  0
VERTEX
  8
I-HOLD
  5
152
 10
60.866722
 20
-250.738639
 30
7.32233
 70
    64
  0
VERTEX
  8
I-HOLD
  5
153
 10
60.866722
 20
-245.560969
 30
3.349365
 70
    64
  0
VERTEX
  8
I-HOLD
  5
154
 10
60.866722
 20
-239.531445
 30
0.851854
 70
    64
  0
VERTEX
  8
I-HOLD
  5
155
 10
60.866722
 20
-233.060969
 30
0.0
 70
    64
  0
VERTEX
  8
I-HOLD
  5
156
 10
60.866722
 20
-233.060969
 30
50.0
 70
    64
  0
VERTEX
  8
I-HOLD
  5
157
 10
60.866722
 20
-233.060969
 30
45.833333
 70
    64
  0
VERTEX
  8
I-HOLD
  5
158
 10
60.866722
 20
-233.060969
 30
41.666667
 70
    64
  0
VERTEX
  8
I-HOLD
  5
159
 10
60.866722
 20
-233.060969
 30
37.5
 70
    64
  0
VERTEX
  8
I-HOLD
  5
15A
 10
60.866722
 20
-233.060969
 30
33.333333
 70
    64
  0
VERTEX
  8
I-HOLD
  5
15B
 10
60.866722
 20
-233.060969
 30
29.166667
 70
    64
  0
VERTEX
  8
I-HOLD
  5
15C
 10
60.866722
 20
-233.060969
 30
25.0
 70
    64
  0
VERTEX
  8
I-HOLD
  5
15D
 10
60.866722
 20
-233.060969
 30
20.833333
 70
    64
  0
VERTEX
  8
I-HOLD
  5
15E
 10
60.866722
 20
-233.060969
 30
16.666667
 70
    64
  0
VERTEX
  8
I-HOLD
  5
15F
 10
60.866722
 20
-233.060969
 30
12.5
 70
    64
  0
VERTEX
  8
I-HOLD
  5
160
 10
60.866722
 20
-233.060969
 30
8.333333
 70
    64
  0
VERTEX
  8
I-HOLD
  5
161
 10
60.866722
 20
-233.060969
 30
4.166667
 70
    64
  0
VERTEX
  8
I-HOLD
  5
162
 10
60.866722
 20
-233.060969
 30
0.0
 70
    64
  0
SEQEND
  8
I-HOLD
  5
163
  0
POLYLINE
  8
I-HOLD
  5
164
 66
     1
 10
0.0
 20
0.0
 30
0.0
 70
    16
 71
     2
 72
     9
  0
VERTEX
  8
I-HOLD
  5
165
 10
40.866722
 20
-148.060969
 30
50.0
 70
    64
  0
VERTEX
  8
I-HOLD
  5
166
 10
41.627927
 20
-148.060969
 30
53.826834
 70
    64
  0
VERTEX
  8
I-HOLD
  5
167
 10
43.795655
 20
-148.060969
 30
57.071068
 70
    64
  0
VERTEX
  8
I-HOLD
  5
168
 10
47.039888
 20
-148.060969
 30
59.238795
 70
    64
  0
VERTEX
  8
I-HOLD
  5
169
 10
50.866722
 20
-148.060969
 30
60.0
 70
    64
  0
VERTEX
  8
I-HOLD
  5
16A
 10
54.693557
 20
-148.060969
 30
59.238795
 70
    64
  0
VERTEX
  8
I-HOLD
  5
16B
 10
57.93779
 20
-148.060969
 30
57.071068
 70
    64
  0
VERTEX
  8
I-HOLD
  5
16C
 10
60.105518
 20
-148.060969
 30
53.826834
 70
    64
  0
VERTEX
  8
I-HOLD
  5
16D
 10
60.866722
 20
-148.060969
 30
50.0
 70
    64
  0
VERTEX
  8
I-HOLD
  5
16E
 10
40.866722
 20
-233.060969
 30
50.0
 70
    64
  0
VERTEX
  8
I-HOLD
  5
16F
 10
41.627927
 20
-233.060969
 30
53.826834
 70
    64
  0
VERTEX
  8
I-HOLD
  5
170
 10
43.795655
 20
-233.060969
 30
57.071068
 70
    64
  0
VERTEX
  8
I-HOLD
  5
171
 10
47.039888
 20
-233.060969
 30
59.238795
 70
    64
  0
VERTEX
  8
I-HOLD
  5
172
 10
50.866722
 20
-233.060969
 30
60.0
 70
    64
  0
VERTEX
  8
I-HOLD
  5
173
 10
54.693557
 20
-233.060969
 30
59.238795
 70
    64
  0
VERTEX
  8
I-HOLD
  5
174
 10
57.93779
 20
-233.060969
 30
57.071068
 70
    64
  0
VERTEX
  8
I-HOLD
  5
175
 10
60.105518
 20
-233.060969
 30
53.826834
 70
    64
  0
VERTEX
  8
I-HOLD
  5
176
 10
60.866722
 20
-233.060969
 30
50.0
 70
    64
  0
SEQEND
  8
I-HOLD
  5
177
  0
POLYLINE
  8
I-HOLD
  5
178
 66
     1
 10
0.0
 20
0.0
 30
0.0
 70
    16
 71
     2
 72
     9
  0
VERTEX
  8
I-HOLD
  5
179
 10
60.866722
 20
-148.060969
 30
0.0
 70
    64
  0
VERTEX
  8
I-HOLD
  5
17A
 10
60.105518
 20
-148.060969
 30
-3.826834
 70
    64
  0
VERTEX
  8
I-HOLD
  5
17B
 10
57.93779
 20
-148.060969
 30
-7.071068
 70
    64
  0
VERTEX
  8
I-HOLD
  5
17C
 10
54.693557
 20
-148.060969
 30
-9.238795
 70
    64
  0
VERTEX
  8
I-HOLD
  5
17D
 10
50.866722
 20
-148.060969
 30
-10.0
 70
    64
  0
VERTEX
  8
I-HOLD
  5
17E
 10
47.039888
 20
-148.060969
 30
-9.238795
 70
    64
  0
VERTEX
  8
I-HOLD
  5
17F
 10
43.795655
 20
-148.060969
 30
-7.071068
 70
    64
  0
VERTEX
  8
I-HOLD
  5
180
 10
41.627927
 20
-148.060969
 30
-3.826834
 70
    64
  0
VERTEX
  8
I-HOLD
  5
181
 10
40.866722
 20
-148.060969
 30
0.0
 70
    64
  0
VERTEX
  8
I-HOLD
  5
182
 10
60.866722
 20
-233.060969
 30
0.0
 70
    64
  0
VERTEX
  8
I-HOLD
  5
183
 10
60.105518
 20
-233.060969
 30
-3.826834
 70
    64
  0
VERTEX
  8
I-HOLD
  5
184
 10
57.93779
 20
-233.060969
 30
-7.071068
 70
    64
  0
VERTEX
  8
I-HOLD
  5
185
 10
54.693557
 20
-233.060969
 30
-9.238795
 70
    64
  0
VERTEX
  8
I-HOLD
  5
186
 10
50.866722
 20
-233.060969
 30
-10.0
 70
    64
  0
VERTEX
  8
I-HOLD
  5
187
 10
47.039888
 20
-233.060969
 30
-9.238795
 70
    64
  0
VERTEX
  8
I-HOLD
  5
188
 10
43.795655
 20
-233.060969
 30
-7.071068
 70
    64
  0
VERTEX
  8
I-HOLD
  5
189
 10
41.627927
 20
-233.060969
 30
-3.826834
 70
    64
  0
VERTEX
  8
I-HOLD
  5
18A
 10
40.866722
 20
-233.060969
 30
0.0
 70
    64
  0
SEQEND
  8
I-HOLD
  5
18B
  0
POLYLINE
  8
I-HOLD
  5
18D
 66
     1
 10
0.0
 20
0.0
 30
0.0
 70
    16
 71
    13
 72
     9
  0
VERTEX
  8
I-HOLD
  5
18E
 10
170.866722
 20
-233.060969
 30
50.0
 70
    64
  0
VERTEX
  8
I-HOLD
  5
18F
 10
171.627927
 20
-233.060969
 30
53.826834
 70
    64
  0
VERTEX
  8
I-HOLD
  5
190
 10
173.795655
 20
-233.060969
 30
57.071068
 70
    64
  0
VERTEX
  8
I-HOLD
  5
191
 10
177.039888
 20
-233.060969
 30
59.238795
 70
    64
  0
VERTEX
  8
I-HOLD
  5
192
 10
180.866722
 20
-233.060969
 30
60.0
 70
    64
  0
VERTEX
  8
I-HOLD
  5
193
 10
184.693557
 20
-233.060969
 30
59.238795
 70
    64
  0
VERTEX
  8
I-HOLD
  5
194
 10
187.93779
 20
-233.060969
 30
57.071068
 70
    64
  0
VERTEX
  8
I-HOLD
  5
195
 10
190.105518
 20
-233.060969
 30
53.826834
 70
    64
  0
VERTEX
  8
I-HOLD
  5
196
 10
190.866722
 20
-233.060969
 30
50.0
 70
    64
  0
VERTEX
  8
I-HOLD
  5
197
 10
170.866722
 20
-239.531445
 30
49.148146
 70
    64
  0
VERTEX
  8
I-HOLD
  5
198
 10
171.627927
 20
-240.521903
 30
52.844584
 70
    64
  0
VERTEX
  8
I-HOLD
  5
199
 10
173.795655
 20
-241.361572
 30
55.978273
 70
    64
  0
VERTEX
  8
I-HOLD
  5
19A
 10
177.039888
 20
-241.922622
 30
58.072137
 70
    64
  0
VERTEX
  8
I-HOLD
  5
19B
 10
180.866722
 20
-242.119636
 30
58.807404
 70
    64
  0
VERTEX
  8
I-HOLD
  5
19C
 10
184.693557
 20
-241.922622
 30
58.072137
 70
    64
  0
VERTEX
  8
I-HOLD
  5
19D
 10
187.93779
 20
-241.361572
 30
55.978273
 70
    64
  0
VERTEX
  8
I-HOLD
  5
19E
 10
190.105518
 20
-240.521903
 30
52.844584
 70
    64
  0
VERTEX
  8
I-HOLD
  5
19F
 10
190.866722
 20
-239.531445
 30
49.148146
 70
    64
  0
VERTEX
  8
I-HOLD
  5
1A0
 10
170.866722
 20
-245.560969
 30
46.650635
 70
    64
  0
VERTEX
  8
I-HOLD
  5
1A1
 10
171.627927
 20
-247.474386
 30
49.964771
 70
    64
  0
VERTEX
  8
I-HOLD
  5
1A2
 10
173.795655
 20
-249.096503
 30
52.774359
 70
    64
  0
VERTEX
  8
I-HOLD
  5
1A3
 10
177.039888
 20
-250.180367
 30
54.651667
 70
    64
  0
VERTEX
  8
I-HOLD
  5
1A4
 10
180.866722
 20
-250.560969
 30
55.310889
 70
    64
  0
VERTEX
  8
I-HOLD
  5
1A5
 10
184.693557
 20
-250.180367
 30
54.651667
 70
    64
  0
VERTEX
  8
I-HOLD
  5
1A6
 10
187.93779
 20
-249.096503
 30
52.774359
 70
    64
  0
VERTEX
  8
I-HOLD
  5
1A7
 10
190.105518
 20
-247.474386
 30
49.964771
 70
    64
  0
VERTEX
  8
I-HOLD
  5
1A8
 10
190.866722
 20
-245.560969
 30
46.650635
 70
    64
  0
VERTEX
  8
I-HOLD
  5
1A9
 10
170.866722
 20
-250.738639
 30
42.67767
 70
    64
  0
VERTEX
  8
I-HOLD
  5
1AA
 10
171.627927
 20
-253.444619
 30
45.38365
 70
    64
  0
VERTEX
  8
I-HOLD
  5
1AB
 10
173.795655
 20
-255.738639
 30
47.67767
 70
    64
  0
VERTEX
  8
I-HOLD
  5
1AC
 10
177.039888
 20
-257.271454
 30
49.210484
 70
    64
  0
VERTEX
  8
I-HOLD
  5
1AD
 10
180.866722
 20
-257.809707
 30
49.748737
 70
    64
  0
VERTEX
  8
I-HOLD
  5
1AE
 10
184.693557
 20
-257.271454
 30
49.210484
 70
    64
  0
VERTEX
  8
I-HOLD
  5
1AF
 10
187.93779
 20
-255.738639
 30
47.67767
 70
    64
  0
VERTEX
  8
I-HOLD
  5
1B0
 10
190.105518
 20
-253.444619
 30
45.38365
 70
    64
  0
VERTEX
  8
I-HOLD
  5
1B1
 10
190.866722
 20
-250.738639
 30
42.67767
 70
    64
  0
VERTEX
  8
I-HOLD
  5
1B2
 10
170.866722
 20
-254.711604
 30
37.5
 70
    64
  0
VERTEX
  8
I-HOLD
  5
1B3
 10
171.627927
 20
-258.02574
 30
39.413417
 70
    64
  0
VERTEX
  8
I-HOLD
  5
1B4
 10
173.795655
 20
-260.835329
 30
41.035534
 70
    64
  0
VERTEX
  8
I-HOLD
  5
1B5
 10
177.039888
 20
-262.712636
 30
42.119398
 70
    64
  0
VERTEX
  8
I-HOLD
  5
1B6
 10
180.866722
 20
-263.371858
 30
42.5
 70
    64
  0
VERTEX
  8
I-HOLD
  5
1B7
 10
184.693557
 20
-262.712636
 30
42.119398
 70
    64
  0
VERTEX
  8
I-HOLD
  5
1B8
 10
187.93779
 20
-260.835329
 30
41.035534
 70
    64
  0
VERTEX
  8
I-HOLD
  5
1B9
 10
190.105518
 20
-258.02574
 30
39.413417
 70
    64
  0
VERTEX
  8
I-HOLD
  5
1BA
 10
190.866722
 20
-254.711604
 30
37.5
 70
    64
  0
VERTEX
  8
I-HOLD
  5
1BB
 10
170.866722
 20
-257.209115
 30
31.470476
 70
    64
  0
VERTEX
  8
I-HOLD
  5
1BC
 10
171.627927
 20
-260.905553
 30
32.460934
 70
    64
  0
VERTEX
  8
I-HOLD
  5
1BD
 10
173.795655
 20
-264.039242
 30
33.300603
 70
    64
  0
VERTEX
  8
I-HOLD
  5
1BE
 10
177.039888
 20
-266.133106
 30
33.861652
 70
    64
  0
VERTEX
  8
I-HOLD
  5
1BF
 10
180.866722
 20
-266.868373
 30
34.058667
 70
    64
  0
VERTEX
  8
I-HOLD
  5
1C0
 10
184.693557
 20
-266.133106
 30
33.861652
 70
    64
  0
VERTEX
  8
I-HOLD
  5
1C1
 10
187.93779
 20
-264.039242
 30
33.300603
 70
    64
  0
VERTEX
  8
I-HOLD
  5
1C2
 10
190.105518
 20
-260.905553
 30
32.460934
 70
    64
  0
VERTEX
  8
I-HOLD
  5
1C3
 10
190.866722
 20
-257.209115
 30
31.470476
 70
    64
  0
VERTEX
  8
I-HOLD
  5
1C4
 10
170.866722
 20
-258.060969
 30
25.0
 70
    64
  0
VERTEX
  8
I-HOLD
  5
1C5
 10
171.627927
 20
-261.887804
 30
25.0
 70
    64
  0
VERTEX
  8
I-HOLD
  5
1C6
 10
173.795655
 20
-265.132037
 30
25.0
 70
    64
  0
VERTEX
  8
I-HOLD
  5
1C7
 10
177.039888
 20
-267.299765
 30
25.0
 70
    64
  0
VERTEX
  8
I-HOLD
  5
1C8
 10
180.866722
 20
-268.060969
 30
25.0
 70
    64
  0
VERTEX
  8
I-HOLD
  5
1C9
 10
184.693557
 20
-267.299765
 30
25.0
 70
    64
  0
VERTEX
  8
I-HOLD
  5
1CA
 10
187.93779
 20
-265.132037
 30
25.0
 70
    64
  0
VERTEX
  8
I-HOLD
  5
1CB
 10
190.105518
 20
-261.887804
 30
25.0
 70
    64
  0
VERTEX
  8
I-HOLD
  5
1CC
 10
190.866722
 20
-258.060969
 30
25.0
 70
    64
  0
VERTEX
  8
I-HOLD
  5
1CD
 10
170.866722
 20
-257.209115
 30
18.529524
 70
    64
  0
VERTEX
  8
I-HOLD
  5
1CE
 10
171.627927
 20
-260.905553
 30
17.539066
 70
    64
  0
VERTEX
  8
I-HOLD
  5
1CF
 10
173.795655
 20
-264.039242
 30
16.699397
 70
    64
  0
VERTEX
  8
I-HOLD
  5
1D0
 10
177.039888
 20
-266.133106
 30
16.138348
 70
    64
  0
VERTEX
  8
I-HOLD
  5
1D1
 10
180.866722
 20
-266.868373
 30
15.941333
 70
    64
  0
VERTEX
  8
I-HOLD
  5
1D2
 10
184.693557
 20
-266.133106
 30
16.138348
 70
    64
  0
VERTEX
  8
I-HOLD
  5
1D3
 10
187.93779
 20
-264.039242
 30
16.699397
 70
    64
  0
VERTEX
  8
I-HOLD
  5
1D4
 10
190.105518
 20
-260.905553
 30
17.539066
 70
    64
  0
VERTEX
  8
I-HOLD
  5
1D5
 10
190.866722
 20
-257.209115
 30
18.529524
 70
    64
  0
VERTEX
  8
I-HOLD
  5
1D6
 10
170.866722
 20
-254.711604
 30
12.5
 70
    64
  0
VERTEX
  8
I-HOLD
  5
1D7
 10
171.627927
 20
-258.02574
 30
10.586583
 70
    64
  0
VERTEX
  8
I-HOLD
  5
1D8
 10
173.795655
 20
-260.835329
 30
8.964466
 70
    64
  0
VERTEX
  8
I-HOLD
  5
1D9
 10
177.039888
 20
-262.712636
 30
7.880602
 70
    64
  0
VERTEX
  8
I-HOLD
  5
1DA
 10
180.866722
 20
-263.371858
 30
7.5
 70
    64
  0
VERTEX
  8
I-HOLD
  5
1DB
 10
184.693557
 20
-262.712636
 30
7.880602
 70
    64
  0
VERTEX
  8
I-HOLD
  5
1DC
 10
187.93779
 20
-260.835329
 30
8.964466
 70
    64
  0
VERTEX
  8
I-HOLD
  5
1DD
 10
190.105518
 20
-258.02574
 30
10.586583
 70
    64
  0
VERTEX
  8
I-HOLD
  5
1DE
 10
190.866722
 20
-254.711604
 30
12.5
 70
    64
  0
VERTEX
  8
I-HOLD
  5
1DF
 10
170.866722
 20
-250.738639
 30
7.32233
 70
    64
  0
VERTEX
  8
I-HOLD
  5
1E0
 10
171.627927
 20
-253.444619
 30
4.61635
 70
    64
  0
VERTEX
  8
I-HOLD
  5
1E1
 10
173.795655
 20
-255.738639
 30
2.32233
 70
    64
  0
VERTEX
  8
I-HOLD
  5
1E2
 10
177.039888
 20
-257.271454
 30
0.789516
 70
    64
  0
VERTEX
  8
I-HOLD
  5
1E3
 10
180.866722
 20
-257.809707
 30
0.251263
 70
    64
  0
VERTEX
  8
I-HOLD
  5
1E4
 10
184.693557
 20
-257.271454
 30
0.789516
 70
    64
  0
VERTEX
  8
I-HOLD
  5
1E5
 10
187.93779
 20
-255.738639
 30
2.32233
 70
    64
  0
VERTEX
  8
I-HOLD
  5
1E6
 10
190.105518
 20
-253.444619
 30
4.61635
 70
    64
  0
VERTEX
  8
I-HOLD
  5
1E7
 10
190.866722
 20
-250.738639
 30
7.32233
 70
    64
  0
VERTEX
  8
I-HOLD
  5
1E8
 10
170.866722
 20
-245.560969
 30
3.349365
 70
    64
  0
VERTEX
  8
I-HOLD
  5
1E9
 10
171.627927
 20
-247.474386
 30
0.035229
 70
    64
  0
VERTEX
  8
I-HOLD
  5
1EA
 10
173.795655
 20
-249.096503
 30
-2.774359
 70
    64
  0
VERTEX
  8
I-HOLD
  5
1EB
 10
177.039888
 20
-250.180367
 30
-4.651667
 70
    64
  0
VERTEX
  8
I-HOLD
  5
1EC
 10
180.866722
 20
-250.560969
 30
-5.310889
 70
    64
  0
VERTEX
  8
I-HOLD
  5
1ED
 10
184.693557
 20
-250.180367
 30
-4.651667
 70
    64
  0
VERTEX
  8
I-HOLD
  5
1EE
 10
187.93779
 20
-249.096503
 30
-2.774359
 70
    64
  0
VERTEX
  8
I-HOLD
  5
1EF
 10
190.105518
 20
-247.474386
 30
0.035229
 70
    64
  0
VERTEX
  8
I-HOLD
  5
1F0
 10
190.866722
 20
-245.560969
 30
3.349365
 70
    64
  0
VERTEX
  8
I-HOLD
  5
1F1
 10
170.866722
 20
-239.531445
 30
0.851854
 70
    64
  0
VERTEX
  8
I-HOLD
  5
1F2
 10
171.627927
 20
-240.521903
 30
-2.844584
 70
    64
  0
VERTEX
  8
I-HOLD
  5
1F3
 10
173.795655
 20
-241.361572
 30
-5.978273
 70
    64
  0
VERTEX
  8
I-HOLD
  5
1F4
 10
177.039888
 20
-241.922622
 30
-8.072137
 70
    64
  0
VERTEX
  8
I-HOLD
  5
1F5
 10
180.866722
 20
-242.119636
 30
-8.807404
 70
    64
  0
VERTEX
  8
I-HOLD
  5
1F6
 10
184.693557
 20
-241.922622
 30
-8.072137
 70
    64
  0
VERTEX
  8
I-HOLD
  5
1F7
 10
187.93779
 20
-241.361572
 30
-5.978273
 70
    64
  0
VERTEX
  8
I-HOLD
  5
1F8
 10
190.105518
 20
-240.521903
 30
-2.844584
 70
    64
  0
VERTEX
  8
I-HOLD
  5
1F9
 10
190.866722
 20
-239.531445
 30
0.851854
 70
    64
  0
VERTEX
  8
I-HOLD
  5
1FA
 10
170.866722
 20
-233.060969
 30
0.0
 70
    64
  0
VERTEX
  8
I-HOLD
  5
1FB
 10
171.627927
 20
-233.060969
 30
-3.826834
 70
    64
  0
VERTEX
  8
I-HOLD
  5
1FC
 10
173.795655
 20
-233.060969
 30
-7.071068
 70
    64
  0
VERTEX
  8
I-HOLD
  5
1FD
 10
177.039888
 20
-233.060969
 30
-9.238795
 70
    64
  0
VERTEX
  8
I-HOLD
  5
1FE
 10
180.866722
 20
-233.060969
 30
-10.0
 70
    64
  0
VERTEX
  8
I-HOLD
  5
1FF
 10
184.693557
 20
-233.060969
 30
-9.238795
 70
    64
  0
VERTEX
  8
I-HOLD
  5
200
 10
187.93779
 20
-233.060969
 30
-7.071068
 70
    64
  0
VERTEX
  8
I-HOLD
  5
201
 10
190.105518
 20
-233.060969
 30
-3.826834
 70
    64
  0
VERTEX
  8
I-HOLD
  5
202
 10
190.866722
 20
-233.060969
 30
0.0
 70
    64
  0
SEQEND
  8
I-HOLD
  5
203
  0
POLYLINE
  8
I-HOLD
  5
204
 66
     1
 10
0.0
 20
0.0
 30
0.0
 70
    16
 71
     2
 72
     9
  0
VERTEX
  8
I-HOLD
  5
205
 10
190.866722
 20
-148.060969
 30
50.0
 70
    64
  0
VERTEX
  8
I-HOLD
  5
206
 10
190.105518
 20
-148.060969
 30
53.826834
 70
    64
  0
VERTEX
  8
I-HOLD
  5
207
 10
187.93779
 20
-148.060969
 30
57.071068
 70
    64
  0
VERTEX
  8
I-HOLD
  5
208
 10
184.693557
 20
-148.060969
 30
59.238795
 70
    64
  0
VERTEX
  8
I-HOLD
  5
209
 10
180.866722
 20
-148.060969
 30
60.0
 70
    64
  0
VERTEX
  8
I-HOLD
  5
20A
 10
177.039888
 20
-148.060969
 30
59.238795
 70
    64
  0
VERTEX
  8
I-HOLD
  5
20B
 10
173.795655
 20
-148.060969
 30
57.071068
 70
    64
  0
VERTEX
  8
I-HOLD
  5
20C
 10
171.627927
 20
-148.060969
 30
53.826834
 70
    64
  0
VERTEX
  8
I-HOLD
  5
20D
 10
170.866722
 20
-148.060969
 30
50.0
 70
    64
  0
VERTEX
  8
I-HOLD
  5
20E
 10
190.866722
 20
-233.060969
 30
50.0
 70
    64
  0
VERTEX
  8
I-HOLD
  5
20F
 10
190.105518
 20
-233.060969
 30
53.826834
 70
    64
  0
VERTEX
  8
I-HOLD
  5
210
 10
187.93779
 20
-233.060969
 30
57.071068
 70
    64
  0
VERTEX
  8
I-HOLD
  5
211
 10
184.693557
 20
-233.060969
 30
59.238795
 70
    64
  0
VERTEX
  8
I-HOLD
  5
212
 10
180.866722
 20
-233.060969
 30
60.0
 70
    64
  0
VERTEX
  8
I-HOLD
  5
213
 10
177.039888
 20
-233.060969
 30
59.238795
 70
    64
  0
VERTEX
  8
I-HOLD
  5
214
 10
173.795655
 20
-233.060969
 30
57.071068
 70
    64
  0
VERTEX
  8
I-HOLD
  5
215
 10
171.627927
 20
-233.060969
 30
53.826834
 70
    64
  0
VERTEX
  8
I-HOLD
  5
216
 10
170.866722
 20
-233.060969
 30
50.0
 70
    64
  0
SEQEND
  8
I-HOLD
  5
217
  0
ARC
  8
I-HOLD
  5
218
 10
180.866722
 20
50.0
 30
233.060969
 40
10.0
 50
0.0
 51
180.0
210
0.0
220
-1.0
230
0.0
  0
ARC
  8
I-HOLD
  5
219
 10
180.866722
 20
50.0
 30
148.060969
 40
10.0
 50
0.0
 51
180.0
210
0.0
220
-1.0
230
0.0
  0
POLYLINE
  8
I-HOLD
  5
21A
 66
     1
 10
0.0
 20
0.0
 30
0.0
 70
    16
 71
     2
 72
    13
  0
VERTEX
  8
I-HOLD
  5
21B
 10
170.866722
 20
-233.060969
 30
50.0
 70
    64
  0
VERTEX
  8
I-HOLD
  5
21C
 10
170.866722
 20
-239.531445
 30
49.148146
 70
    64
  0
VERTEX
  8
I-HOLD
  5
21D
 10
170.866722
 20
-245.560969
 30
46.650635
 70
    64
  0
VERTEX
  8
I-HOLD
  5
21E
 10
170.866722
 20
-250.738639
 30
42.67767
 70
    64
  0
VERTEX
  8
I-HOLD
  5
21F
 10
170.866722
 20
-254.711604
 30
37.5
 70
    64
  0
VERTEX
  8
I-HOLD
  5
220
 10
170.866722
 20
-257.209115
 30
31.470476
 70
    64
  0
VERTEX
  8
I-HOLD
  5
221
 10
170.866722
 20
-258.060969
 30
25.0
 70
    64
  0
VERTEX
  8
I-HOLD
  5
222
 10
170.866722
 20
-257.209115
 30
18.529524
 70
    64
  0
VERTEX
  8
I-HOLD
  5
223
 10
170.866722
 20
-254.711604
 30
12.5
 70
    64
  0
VERTEX
  8
I-HOLD
  5
224
 10
170.866722
 20
-250.738639
 30
7.32233
 70
    64
  0
VERTEX
  8
I-HOLD
  5
225
 10
170.866722
 20
-245.560969
 30
3.349365
 70
    64
  0
VERTEX
  8
I-HOLD
  5
226
 10
170.866722
 20
-239.531445
 30
0.851854
 70
    64
  0
VERTEX
  8
I-HOLD
  5
227
 10
170.866722
 20
-233.060969
 30
0.0
 70
    64
  0
VERTEX
  8
I-HOLD
  5
228
 10
170.866722
 20
-233.060969
 30
50.0
 70
    64
  0
VERTEX
  8
I-HOLD
  5
229
 10
170.866722
 20
-233.060969
 30
45.833333
 70
    64
  0
VERTEX
  8
I-HOLD
  5
22A
 10
170.866722
 20
-233.060969
 30
41.666667
 70
    64
  0
VERTEX
  8
I-HOLD
  5
22B
 10
170.866722
 20
-233.060969
 30
37.5
 70
    64
  0
VERTEX
  8
I-HOLD
  5
22C
 10
170.866722
 20
-233.060969
 30
33.333333
 70
    64
  0
VERTEX
  8
I-HOLD
  5
22D
 10
170.866722
 20
-233.060969
 30
29.166667
 70
    64
  0
VERTEX
  8
I-HOLD
  5
22E
 10
170.866722
 20
-233.060969
 30
25.0
 70
    64
  0
VERTEX
  8
I-HOLD
  5
22F
 10
170.866722
 20
-233.060969
 30
20.833333
 70
    64
  0
VERTEX
  8
I-HOLD
  5
230
 10
170.866722
 20
-233.060969
 30
16.666667
 70
    64
  0
VERTEX
  8
I-HOLD
  5
231
 10
170.866722
 20
-233.060969
 30
12.5
 70
    64
  0
VERTEX
  8
I-HOLD
  5
232
 10
170.866722
 20
-233.060969
 30
8.333333
 70
    64
  0
VERTEX
  8
I-HOLD
  5
233
 10
170.866722
 20
-233.060969
 30
4.166667
 70
    64
  0
VERTEX
  8
I-HOLD
  5
234
 10
170.866722
 20
-233.060969
 30
0.0
 70
    64
  0
SEQEND
  8
I-HOLD
  5
235
  0
POLYLINE
  8
I-HOLD
  5
236
 66
     1
 10
0.0
 20
0.0
 30
0.0
 70
    16
 71
     2
 72
    13
  0
VERTEX
  8
I-HOLD
  5
237
 10
190.866722
 20
-233.060969
 30
50.0
 70
    64
  0
VERTEX
  8
I-HOLD
  5
238
 10
190.866722
 20
-239.531445
 30
49.148146
 70
    64
  0
VERTEX
  8
I-HOLD
  5
239
 10
190.866722
 20
-245.560969
 30
46.650635
 70
    64
  0
VERTEX
  8
I-HOLD
  5
23A
 10
190.866722
 20
-250.738639
 30
42.67767
 70
    64
  0
VERTEX
  8
I-HOLD
  5
23B
 10
190.866722
 20
-254.711604
 30
37.5
 70
    64
  0
VERTEX
  8
I-HOLD
  5
23C
 10
190.866722
 20
-257.209115
 30
31.470476
 70
    64
  0
VERTEX
  8
I-HOLD
  5
23D
 10
190.866722
 20
-258.060969
 30
25.0
 70
    64
  0
VERTEX
  8
I-HOLD
  5
23E
 10
190.866722
 20
-257.209115
 30
18.529524
 70
    64
  0
VERTEX
  8
I-HOLD
  5
23F
 10
190.866722
 20
-254.711604
 30
12.5
 70
    64
  0
VERTEX
  8
I-HOLD
  5
240
 10
190.866722
 20
-250.738639
 30
7.32233
 70
    64
  0
VERTEX
  8
I-HOLD
  5
241
 10
190.866722
 20
-245.560969
 30
3.349365
 70
    64
  0
VERTEX
  8
I-HOLD
  5
242
 10
190.866722
 20
-239.531445
 30
0.851854
 70
    64
  0
VERTEX
  8
I-HOLD
  5
243
 10
190.866722
 20
-233.060969
 30
0.0
 70
    64
  0
VERTEX
  8
I-HOLD
  5
244
 10
190.866722
 20
-233.060969
 30
50.0
 70
    64
  0
VERTEX
  8
I-HOLD
  5
245
 10
190.866722
 20
-233.060969
 30
45.833333
 70
    64
  0
VERTEX
  8
I-HOLD
  5
246
 10
190.866722
 20
-233.060969
 30
41.666667
 70
    64
  0
VERTEX
  8
I-HOLD
  5
247
 10
190.866722
 20
-233.060969
 30
37.5
 70
    64
  0
VERTEX
  8
I-HOLD
  5
248
 10
190.866722
 20
-233.060969
 30
33.333333
 70
    64
  0
VERTEX
  8
I-HOLD
  5
249
 10
190.866722
 20
-233.060969
 30
29.166667
 70
    64
  0
VERTEX
  8
I-HOLD
  5
24A
 10
190.866722
 20
-233.060969
 30
25.0
 70
    64
  0
VERTEX
  8
I-HOLD
  5
24B
 10
190.866722
 20
-233.060969
 30
20.833333
 70
    64
  0
VERTEX
  8
I-HOLD
  5
24C
 10
190.866722
 20
-233.060969
 30
16.666667
 70
    64
  0
VERTEX
  8
I-HOLD
  5
24D
 10
190.866722
 20
-233.060969
 30
12.5
 70
    64
  0
VERTEX
  8
I-HOLD
  5
24E
 10
190.866722
 20
-233.060969
 30
8.333333
 70
    64
  0
VERTEX
  8
I-HOLD
  5
24F
 10
190.866722
 20
-233.060969
 30
4.166667
 70
    64
  0
VERTEX
  8
I-HOLD
  5
250
 10
190.866722
 20
-233.060969
 30
0.0
 70
    64
  0
SEQEND
  8
I-HOLD
  5
251
  0
3DFACE
  8
I-HOLD
  5
252
 10
170.866722
 20
-148.060969
 30
50.0
 11
170.866722
 21
-233.060969
 31
50.0
 12
170.866722
 22
-233.060969
 32
0.0
 13
170.866722
 23
-148.060969
 33
0.0
  0
3DFACE
  8
I-HOLD
  5
253
 10
190.866722
 20
-148.060969
 30
50.0
 11
190.866722
 21
-233.060969
 31
50.0
 12
190.866722
 22
-233.060969
 32
0.0
 13
190.866722
 23
-148.060969
 33
0.0
  0
LINE
  8
I-HOLD
  5
254
 10
190.866722
 20
-233.060969
 30
50.0
 11
190.866722
 21
-233.060969
 31
0.0
210
0.0
220
-1.0
230
0.0
  0
LINE
  8
I-HOLD
  5
255
 10
190.866722
 20
-148.060969
 30
50.0
 11
190.866722
 21
-148.060969
 31
0.0
210
0.0
220
-1.0
230
0.0
  0
POLYLINE
  8
I-HOLD
  5
256
 66
     1
 10
0.0
 20
0.0
 30
0.0
 70
    16
 71
     2
 72
     9
  0
VERTEX
  8
I-HOLD
  5
257
 10
170.866722
 20
-148.060969
 30
0.0
 70
    64
  0
VERTEX
  8
I-HOLD
  5
258
 10
171.627927
 20
-148.060969
 30
-3.826834
 70
    64
  0
VERTEX
  8
I-HOLD
  5
259
 10
173.795655
 20
-148.060969
 30
-7.071068
 70
    64
  0
VERTEX
  8
I-HOLD
  5
25A
 10
177.039888
 20
-148.060969
 30
-9.238795
 70
    64
  0
VERTEX
  8
I-HOLD
  5
25B
 10
180.866722
 20
-148.060969
 30
-10.0
 70
    64
  0
VERTEX
  8
I-HOLD
  5
25C
 10
184.693557
 20
-148.060969
 30
-9.238795
 70
    64
  0
VERTEX
  8
I-HOLD
  5
25D
 10
187.93779
 20
-148.060969
 30
-7.071068
 70
    64
  0
VERTEX
  8
I-HOLD
  5
25E
 10
190.105518
 20
-148.060969
 30
-3.826834
 70
    64
  0
VERTEX
  8
I-HOLD
  5
25F
 10
190.866722
 20
-148.060969
 30
0.0
 70
    64
  0
VERTEX
  8
I-HOLD
  5
260
 10
170.866722
 20
-233.060969
 30
0.0
 70
    64
  0
VERTEX
  8
I-HOLD
  5
261
 10
171.627927
 20
-233.060969
 30
-3.826834
 70
    64
  0
VERTEX
  8
I-HOLD
  5
262
 10
173.795655
 20
-233.060969
 30
-7.071068
 70
    64
  0
VERTEX
  8
I-HOLD
  5
263
 10
177.039888
 20
-233.060969
 30
-9.238795
 70
    64
  0
VERTEX
  8
I-HOLD
  5
264
 10
180.866722
 20
-233.060969
 30
-10.0
 70
    64
  0
VERTEX
  8
I-HOLD
  5
265
 10
184.693557
 20
-233.060969
 30
-9.238795
 70
    64
  0
VERTEX
  8
I-HOLD
  5
266
 10
187.93779
 20
-233.060969
 30
-7.071068
 70
    64
  0
VERTEX
  8
I-HOLD
  5
267
 10
190.105518
 20
-233.060969
 30
-3.826834
 70
    64
  0
VERTEX
  8
I-HOLD
  5
268
 10
190.866722
 20
-233.060969
 30
0.0
 70
    64
  0
SEQEND
  8
I-HOLD
  5
269
  0
ARC
  8
I-HOLD
  5
26A
 10
180.866722
 20
0.0
 30
233.060969
 40
10.0
 50
180.0
 51
0.0
210
0.0
220
-1.0
230
0.0
  0
ARC
  8
I-HOLD
  5
26B
 10
180.866722
 20
0.0
 30
148.060969
 40
10.0
 50
180.0
 51
0.0
210
0.0
220
-1.0
230
0.0
  0
LINE
  8
I-HOLD
  5
26C
 10
190.866722
 20
-148.060969
 30
50.0
 11
190.866722
 21
-233.060969
 31
50.0
  0
LINE
  8
I-ROLL
  5
270
 10
62.970157
 20
-228.300305
 30
70.104986
 11
62.970157
 21
-228.300305
 31
-39.895014
210
-1.0
220
0.0
230
0.0
  0
LINE
  8
I-ROLL
  5
271
 10
62.970157
 20
-228.300305
 30
70.104986
 11
167.970157
 21
-228.300305
 31
70.104986
210
-1.0
220
0.0
230
0.0
  0
LINE
  8
I-ROLL
  5
274
 10
62.970157
 20
-283.300305
 30
15.104986
 11
62.970157
 21
-283.300305
 31
-74.895014
210
-1.0
220
0.0
230
0.0
  0
POLYLINE
  8
I-ROLL
  5
291
 66
     1
 10
0.0
 20
0.0
 30
0.0
 70
    16
 71
     2
 72
    13
  0
VERTEX
  8
I-ROLL
  5
292
 10
62.970157
 20
-228.300305
 30
36.104986
 70
    64
  0
VERTEX
  8
I-ROLL
  5
293
 10
62.970157
 20
-233.735505
 30
35.389428
 70
    64
  0
VERTEX
  8
I-ROLL
  5
294
 10
62.970157
 20
-238.800305
 30
33.29152
 70
    64
  0
VERTEX
  8
I-ROLL
  5
295
 10
62.970157
 20
-243.149548
 30
29.954229
 70
    64
  0
VERTEX
  8
I-ROLL
  5
296
 10
62.970157
 20
-246.486839
 30
25.604986
 70
    64
  0
VERTEX
  8
I-ROLL
  5
297
 10
62.970157
 20
-248.584748
 30
20.540186
 70
    64
  0
VERTEX
  8
I-ROLL
  5
298
 10
62.970157
 20
-249.300305
 30
15.104986
 70
    64
  0
VERTEX
  8
I-ROLL
  5
299
 10
62.970157
 20
-248.584748
 30
9.669786
 70
    64
  0
VERTEX
  8
I-ROLL
  5
29A
 10
62.970157
 20
-246.486839
 30
4.604986
 70
    64
  0
VERTEX
  8
I-ROLL
  5
29B
 10
62.970157
 20
-243.149548
 30
0.255744
 70
    64
  0
VERTEX
  8
I-ROLL
  5
29C
 10
62.970157
 20
-238.800305
 30
-3.081547
 70
    64
  0
VERTEX
  8
I-ROLL
  5
29D
 10
62.970157
 20
-233.735505
 30
-5.179456
 70
    64
  0
VERTEX
  8
I-ROLL
  5
29E
 10
62.970157
 20
-228.300305
 30
-5.895014
 70
    64
  0
VERTEX
  8
I-ROLL
  5
29F
 10
167.970157
 20
-228.300305
 30
36.104986
 70
    64
  0
VERTEX
  8
I-ROLL
  5
2A0
 10
167.970157
 20
-233.735505
 30
35.389428
 70
    64
  0
VERTEX
  8
I-ROLL
  5
2A1
 10
167.970157
 20
-238.800305
 30
33.29152
 70
    64
  0
VERTEX
  8
I-ROLL
  5
2A2
 10
167.970157
 20
-243.149548
 30
29.954229
 70
    64
  0
VERTEX
  8
I-ROLL
  5
2A3
 10
167.970157
 20
-246.486839
 30
25.604986
 70
    64
  0
VERTEX
  8
I-ROLL
  5
2A4
 10
167.970157
 20
-248.584748
 30
20.540186
 70
    64
  0
VERTEX
  8
I-ROLL
  5
2A5
 10
167.970157
 20
-249.300305
 30
15.104986
 70
    64
  0
VERTEX
  8
I-ROLL
  5
2A6
 10
167.970157
 20
-248.584748
 30
9.669786
 70
    64
  0
VERTEX
  8
I-ROLL
  5
2A7
 10
167.970157
 20
-246.486839
 30
4.604986
 70
    64
  0
VERTEX
  8
I-ROLL
  5
2A8
 10
167.970157
 20
-243.149548
 30
0.255744
 70
    64
  0
VERTEX
  8
I-ROLL
  5
2A9
 10
167.970157
 20
-238.800305
 30
-3.081547
 70
    64
  0
VERTEX
  8
I-ROLL
  5
2AA
 10
167.970157
 20
-233.735505
 30
-5.179456
 70
    64
  0
VERTEX
  8
I-ROLL
  5
2AB
 10
167.970157
 20
-228.300305
 30
-5.895014
 70
    64
  0
SEQEND
  8
I-ROLL
  5
2AC
  0
POLYLINE
  8
I-ROLL
  5
2AD
 66
     1
 10
0.0
 20
0.0
 30
0.0
 70
    16
 71
     2
 72
    13
  0
VERTEX
  8
I-ROLL
  5
2AE
 10
62.970157
 20
-228.300305
 30
70.104986
 70
    64
  0
VERTEX
  8
I-ROLL
  5
2AF
 10
62.970157
 20
-242.535353
 30
68.230907
 70
    64
  0
VERTEX
  8
I-ROLL
  5
2B0
 10
62.970157
 20
-255.800305
 30
62.736383
 70
    64
  0
VERTEX
  8
I-ROLL
  5
2B1
 10
62.970157
 20
-267.191178
 30
53.995859
 70
    64
  0
VERTEX
  8
I-ROLL
  5
2B2
 10
62.970157
 20
-275.931703
 30
42.604986
 70
    64
  0
VERTEX
  8
I-ROLL
  5
2B3
 10
62.970157
 20
-281.426226
 30
29.340034
 70
    64
  0
VERTEX
  8
I-ROLL
  5
2B4
 10
62.970157
 20
-283.300305
 30
15.104986
 70
    64
  0
VERTEX
  8
I-ROLL
  5
2B5
 10
62.970157
 20
-281.426226
 30
0.869939
 70
    64
  0
VERTEX
  8
I-ROLL
  5
2B6
 10
62.970157
 20
-275.931703
 30
-12.395014
 70
    64
  0
VERTEX
  8
I-ROLL
  5
2B7
 10
62.970157
 20
-267.191178
 30
-23.785887
 70
    64
  0
VERTEX
  8
I-ROLL
  5
2B8
 10
62.970157
 20
-255.800305
 30
-32.526411
 70
    64
  0
VERTEX
  8
I-ROLL
  5
2B9
 10
62.970157
 20
-242.535353
 30
-38.020934
 70
    64
  0
VERTEX
  8
I-ROLL
  5
2BA
 10
62.970157
 20
-228.300305
 30
-39.895014
 70
    64
  0
VERTEX
  8
I-ROLL
  5
2BB
 10
167.970157
 20
-228.300305
 30
70.104986
 70
    64
  0
VERTEX
  8
I-ROLL
  5
2BC
 10
167.970157
 20
-242.535353
 30
68.230907
 70
    64
  0
VERTEX
  8
I-ROLL
  5
2BD
 10
167.970157
 20
-255.800305
 30
62.736383
 70
    64
  0
VERTEX
  8
I-ROLL
  5
2BE
 10
167.970157
 20
-267.191178
 30
53.995859
 70
    64
  0
VERTEX
  8
I-ROLL
  5
2BF
 10
167.970157
 20
-275.931703
 30
42.604986
 70
    64
  0
VERTEX
  8
I-ROLL
  5
2C0
 10
167.970157
 20
-281.426226
 30
29.340034
 70
    64
  0
VERTEX
  8
I-ROLL
  5
2C1
 10
167.970157
 20
-283.300305
 30
15.104986
 70
    64
  0
VERTEX
  8
I-ROLL
  5
2C2
 10
167.970157
 20
-281.426226
 30
0.869939
 70
    64
  0
VERTEX
  8
I-ROLL
  5
2C3
 10
167.970157
 20
-275.931703
 30
-12.395014
 70
    64
  0
VERTEX
  8
I-ROLL
  5
2C4
 10
167.970157
 20
-267.191178
 30
-23.785887
 70
    64
  0
VERTEX
  8
I-ROLL
  5
2C5
 10
167.970157
 20
-255.800305
 30
-32.526411
 70
    64
  0
VERTEX
  8
I-ROLL
  5
2C6
 10
167.970157
 20
-242.535353
 30
-38.020934
 70
    64
  0
VERTEX
  8
I-ROLL
  5
2C7
 10
167.970157
 20
-228.300305
 30
-39.895014
 70
    64
  0
SEQEND
  8
I-ROLL
  5
2C8
  0
POLYLINE
  8
I-ROLL
  5
2C9
 66
     1
 10
0.0
 20
0.0
 30
0.0
 70
    16
 71
     2
 72
    13
  0
VERTEX
  8
I-ROLL
  5
2CA
 10
62.970157
 20
-228.300305
 30
70.104986
 70
    64
  0
VERTEX
  8
I-ROLL
  5
2CB
 10
62.970157
 20
-242.535353
 30
68.230907
 70
    64
  0
VERTEX
  8
I-ROLL
  5
2CC
 10
62.970157
 20
-255.800305
 30
62.736383
 70
    64
  0
VERTEX
  8
I-ROLL
  5
2CD
 10
62.970157
 20
-267.191178
 30
53.995859
 70
    64
  0
VERTEX
  8
I-ROLL
  5
2CE
 10
62.970157
 20
-275.931703
 30
42.604986
 70
    64
  0
VERTEX
  8
I-ROLL
  5
2CF
 10
62.970157
 20
-281.426226
 30
29.340034
 70
    64
  0
VERTEX
  8
I-ROLL
  5
2D0
 10
62.970157
 20
-283.300305
 30
15.104986
 70
    64
  0
VERTEX
  8
I-ROLL
  5
2D1
 10
62.970157
 20
-281.426226
 30
0.869939
 70
    64
  0
VERTEX
  8
I-ROLL
  5
2D2
 10
62.970157
 20
-275.931703
 30
-12.395014
 70
    64
  0
VERTEX
  8
I-ROLL
  5
2D3
 10
62.970157
 20
-267.191178
 30
-23.785887
 70
    64
  0
VERTEX
  8
I-ROLL
  5
2D4
 10
62.970157
 20
-255.800305
 30
-32.526411
 70
    64
  0
VERTEX
  8
I-ROLL
  5
2D5
 10
62.970157
 20
-242.535353
 30
-38.020934
 70
    64
  0
VERTEX
  8
I-ROLL
  5
2D6
 10
62.970157
 20
-228.300305
 30
-39.895014
 70
    64
  0
VERTEX
  8
I-ROLL
  5
2D7
 10
62.970157
 20
-228.300305
 30
36.104986
 70
    64
  0
VERTEX
  8
I-ROLL
  5
2D8
 10
62.970157
 20
-233.735505
 30
35.389428
 70
    64
  0
VERTEX
  8
I-ROLL
  5
2D9
 10
62.970157
 20
-238.800305
 30
33.29152
 70
    64
  0
VERTEX
  8
I-ROLL
  5
2DA
 10
62.970157
 20
-243.149548
 30
29.954229
 70
    64
  0
VERTEX
  8
I-ROLL
  5
2DB
 10
62.970157
 20
-246.486839
 30
25.604986
 70
    64
  0
VERTEX
  8
I-ROLL
  5
2DC
 10
62.970157
 20
-248.584748
 30
20.540186
 70
    64
  0
VERTEX
  8
I-ROLL
  5
2DD
 10
62.970157
 20
-249.300305
 30
15.104986
 70
    64
  0
VERTEX
  8
I-ROLL
  5
2DE
 10
62.970157
 20
-248.584748
 30
9.669786
 70
    64
  0
VERTEX
  8
I-ROLL
  5
2DF
 10
62.970157
 20
-246.486839
 30
4.604986
 70
    64
  0
VERTEX
  8
I-ROLL
  5
2E0
 10
62.970157
 20
-243.149548
 30
0.255744
 70
    64
  0
VERTEX
  8
I-ROLL
  5
2E1
 10
62.970157
 20
-238.800305
 30
-3.081547
 70
    64
  0
VERTEX
  8
I-ROLL
  5
2E2
 10
62.970157
 20
-233.735505
 30
-5.179456
 70
    64
  0
VERTEX
  8
I-ROLL
  5
2E3
 10
62.970157
 20
-228.300305
 30
-5.895014
 70
    64
  0
SEQEND
  8
I-ROLL
  5
2E4
  0
LINE
  8
I-ROLL
  5
2E5
 10
167.970157
 20
-283.300305
 30
15.104986
 11
167.970157
 21
-283.300305
 31
-74.895014
210
-1.0
220
0.0
230
0.0
  0
3DFACE
  8
I-ROLL
  5
2E6
 10
62.970157
 20
-283.300305
 30
15.104986
 11
167.970157
 21
-283.300305
 31
15.104986
 12
167.970157
 22
-283.300305
 32
-74.895014
 13
62.970157
 23
-283.300305
 33
-74.895014
  0
POLYLINE
  8
I-ROLL
  5
2E7
 66
     1
 10
0.0
 20
0.0
 30
0.0
 70
    16
 71
     2
 72
    13
  0
VERTEX
  8
I-ROLL
  5
2E8
 10
62.970157
 20
-228.300305
 30
70.104986
 70
    64
  0
VERTEX
  8
I-ROLL
  5
2E9
 10
62.970157
 20
-214.065258
 30
68.230907
 70
    64
  0
VERTEX
  8
I-ROLL
  5
2EA
 10
62.970157
 20
-200.800305
 30
62.736383
 70
    64
  0
VERTEX
  8
I-ROLL
  5
2EB
 10
62.970157
 20
-189.409432
 30
53.995859
 70
    64
  0
VERTEX
  8
I-ROLL
  5
2EC
 10
62.970157
 20
-180.668908
 30
42.604986
 70
    64
  0
VERTEX
  8
I-ROLL
  5
2ED
 10
62.970157
 20
-175.174385
 30
29.340034
 70
    64
  0
VERTEX
  8
I-ROLL
  5
2EE
 10
62.970157
 20
-173.300305
 30
15.104986
 70
    64
  0
VERTEX
  8
I-ROLL
  5
2EF
 10
62.970157
 20
-175.174385
 30
0.869939
 70
    64
  0
VERTEX
  8
I-ROLL
  5
2F0
 10
62.970157
 20
-180.668908
 30
-12.395014
 70
    64
  0
VERTEX
  8
I-ROLL
  5
2F1
 10
62.970157
 20
-189.409432
 30
-23.785887
 70
    64
  0
VERTEX
  8
I-ROLL
  5
2F2
 10
62.970157
 20
-200.800305
 30
-32.526411
 70
    64
  0
VERTEX
  8
I-ROLL
  5
2F3
 10
62.970157
 20
-214.065258
 30
-38.020934
 70
    64
  0
VERTEX
  8
I-ROLL
  5
2F4
 10
62.970157
 20
-228.300305
 30
-39.895014
 70
    64
  0
VERTEX
  8
I-ROLL
  5
2F5
 10
167.970157
 20
-228.300305
 30
70.104986
 70
    64
  0
VERTEX
  8
I-ROLL
  5
2F6
 10
167.970157
 20
-214.065258
 30
68.230907
 70
    64
  0
VERTEX
  8
I-ROLL
  5
2F7
 10
167.970157
 20
-200.800305
 30
62.736383
 70
    64
  0
VERTEX
  8
I-ROLL
  5
2F8
 10
167.970157
 20
-189.409432
 30
53.995859
 70
    64
  0
VERTEX
  8
I-ROLL
  5
2F9
 10
167.970157
 20
-180.668908
 30
42.604986
 70
    64
  0
VERTEX
  8
I-ROLL
  5
2FA
 10
167.970157
 20
-175.174385
 30
29.340034
 70
    64
  0
VERTEX
  8
I-ROLL
  5
2FB
 10
167.970157
 20
-173.300305
 30
15.104986
 70
    64
  0
VERTEX
  8
I-ROLL
  5
2FC
 10
167.970157
 20
-175.174385
 30
0.869939
 70
    64
  0
VERTEX
  8
I-ROLL
  5
2FD
 10
167.970157
 20
-180.668908
 30
-12.395014
 70
    64
  0
VERTEX
  8
I-ROLL
  5
2FE
 10
167.970157
 20
-189.409432
 30
-23.785887
 70
    64
  0
VERTEX
  8
I-ROLL
  5
2FF
 10
167.970157
 20
-200.800305
 30
-32.526411
 70
    64
  0
VERTEX
  8
I-ROLL
  5
300
 10
167.970157
 20
-214.065258
 30
-38.020934
 70
    64
  0
VERTEX
  8
I-ROLL
  5
301
 10
167.970157
 20
-228.300305
 30
-39.895014
 70
    64
  0
SEQEND
  8
I-ROLL
  5
302
  0
POLYLINE
  8
I-ROLL
  5
303
 66
     1
 10
0.0
 20
0.0
 30
0.0
 70
    16
 71
     2
 72
    13
  0
VERTEX
  8
I-ROLL
  5
304
 10
62.970157
 20
-228.300305
 30
70.104986
 70
    64
  0
VERTEX
  8
I-ROLL
  5
305
 10
62.970157
 20
-214.065258
 30
68.230907
 70
    64
  0
VERTEX
  8
I-ROLL
  5
306
 10
62.970157
 20
-200.800305
 30
62.736383
 70
    64
  0
VERTEX
  8
I-ROLL
  5
307
 10
62.970157
 20
-189.409432
 30
53.995859
 70
    64
  0
VERTEX
  8
I-ROLL
  5
308
 10
62.970157
 20
-180.668908
 30
42.604986
 70
    64
  0
VERTEX
  8
I-ROLL
  5
309
 10
62.970157
 20
-175.174385
 30
29.340034
 70
    64
  0
VERTEX
  8
I-ROLL
  5
30A
 10
62.970157
 20
-173.300305
 30
15.104986
 70
    64
  0
VERTEX
  8
I-ROLL
  5
30B
 10
62.970157
 20
-175.174385
 30
0.869939
 70
    64
  0
VERTEX
  8
I-ROLL
  5
30C
 10
62.970157
 20
-180.668908
 30
-12.395014
 70
    64
  0
VERTEX
  8
I-ROLL
  5
30D
 10
62.970157
 20
-189.409432
 30
-23.785887
 70
    64
  0
VERTEX
  8
I-ROLL
  5
30E
 10
62.970157
 20
-200.800305
 30
-32.526411
 70
    64
  0
VERTEX
  8
I-ROLL
  5
30F
 10
62.970157
 20
-214.065258
 30
-38.020934
 70
    64
  0
VERTEX
  8
I-ROLL
  5
310
 10
62.970157
 20
-228.300305
 30
-39.895014
 70
    64
  0
VERTEX
  8
I-ROLL
  5
311
 10
62.970157
 20
-228.300305
 30
36.104986
 70
    64
  0
VERTEX
  8
I-ROLL
  5
312
 10
62.970157
 20
-222.865105
 30
35.389428
 70
    64
  0
VERTEX
  8
I-ROLL
  5
313
 10
62.970157
 20
-217.800305
 30
33.29152
 70
    64
  0
VERTEX
  8
I-ROLL
  5
314
 10
62.970157
 20
-213.451063
 30
29.954229
 70
    64
  0
VERTEX
  8
I-ROLL
  5
315
 10
62.970157
 20
-210.113772
 30
25.604986
 70
    64
  0
VERTEX
  8
I-ROLL
  5
316
 10
62.970157
 20
-208.015863
 30
20.540186
 70
    64
  0
VERTEX
  8
I-ROLL
  5
317
 10
62.970157
 20
-207.300305
 30
15.104986
 70
    64
  0
VERTEX
  8
I-ROLL
  5
318
 10
62.970157
 20
-208.015863
 30
9.669786
 70
    64
  0
VERTEX
  8
I-ROLL
  5
319
 10
62.970157
 20
-210.113772
 30
4.604986
 70
    64
  0
VERTEX
  8
I-ROLL
  5
31A
 10
62.970157
 20
-213.451063
 30
0.255744
 70
    64
  0
VERTEX
  8
I-ROLL
  5
31B
 10
62.970157
 20
-217.800305
 30
-3.081547
 70
    64
  0
VERTEX
  8
I-ROLL
  5
31C
 10
62.970157
 20
-222.865105
 30
-5.179456
 70
    64
  0
VERTEX
  8
I-ROLL
  5
31D
 10
62.970157
 20
-228.300305
 30
-5.895014
 70
    64
  0
SEQEND
  8
I-ROLL
  5
31E
  0
POLYLINE
  8
I-ROLL
  5
31F
 66
     1
 10
0.0
 20
0.0
 30
0.0
 70
    16
 71
     2
 72
    13
  0
VERTEX
  8
I-ROLL
  5
320
 10
62.970157
 20
-228.300305
 30
36.104986
 70
    64
  0
VERTEX
  8
I-ROLL
  5
321
 10
62.970157
 20
-222.865105
 30
35.389428
 70
    64
  0
VERTEX
  8
I-ROLL
  5
322
 10
62.970157
 20
-217.800305
 30
33.29152
 70
    64
  0
VERTEX
  8
I-ROLL
  5
323
 10
62.970157
 20
-213.451063
 30
29.954229
 70
    64
  0
VERTEX
  8
I-ROLL
  5
324
 10
62.970157
 20
-210.113772
 30
25.604986
 70
    64
  0
VERTEX
  8
I-ROLL
  5
325
 10
62.970157
 20
-208.015863
 30
20.540186
 70
    64
  0
VERTEX
  8
I-ROLL
  5
326
 10
62.970157
 20
-207.300305
 30
15.104986
 70
    64
  0
VERTEX
  8
I-ROLL
  5
327
 10
62.970157
 20
-208.015863
 30
9.669786
 70
    64
  0
VERTEX
  8
I-ROLL
  5
328
 10
62.970157
 20
-210.113772
 30
4.604986
 70
    64
  0
VERTEX
  8
I-ROLL
  5
329
 10
62.970157
 20
-213.451063
 30
0.255744
 70
    64
  0
VERTEX
  8
I-ROLL
  5
32A
 10
62.970157
 20
-217.800305
 30
-3.081547
 70
    64
  0
VERTEX
  8
I-ROLL
  5
32B
 10
62.970157
 20
-222.865105
 30
-5.179456
 70
    64
  0
VERTEX
  8
I-ROLL
  5
32C
 10
62.970157
 20
-228.300305
 30
-5.895014
 70
    64
  0
VERTEX
  8
I-ROLL
  5
32D
 10
167.970157
 20
-228.300305
 30
36.104986
 70
    64
  0
VERTEX
  8
I-ROLL
  5
32E
 10
167.970157
 20
-222.865105
 30
35.389428
 70
    64
  0
VERTEX
  8
I-ROLL
  5
32F
 10
167.970157
 20
-217.800305
 30
33.29152
 70
    64
  0
VERTEX
  8
I-ROLL
  5
330
 10
167.970157
 20
-213.451063
 30
29.954229
 70
    64
  0
VERTEX
  8
I-ROLL
  5
331
 10
167.970157
 20
-210.113772
 30
25.604986
 70
    64
  0
VERTEX
  8
I-ROLL
  5
332
 10
167.970157
 20
-208.015863
 30
20.540186
 70
    64
  0
VERTEX
  8
I-ROLL
  5
333
 10
167.970157
 20
-207.300305
 30
15.104986
 70
    64
  0
VERTEX
  8
I-ROLL
  5
334
 10
167.970157
 20
-208.015863
 30
9.669786
 70
    64
  0
VERTEX
  8
I-ROLL
  5
335
 10
167.970157
 20
-210.113772
 30
4.604986
 70
    64
  0
VERTEX
  8
I-ROLL
  5
336
 10
167.970157
 20
-213.451063
 30
0.255744
 70
    64
  0
VERTEX
  8
I-ROLL
  5
337
 10
167.970157
 20
-217.800305
 30
-3.081547
 70
    64
  0
VERTEX
  8
I-ROLL
  5
338
 10
167.970157
 20
-222.865105
 30
-5.179456
 70
    64
  0
VERTEX
  8
I-ROLL
  5
339
 10
167.970157
 20
-228.300305
 30
-5.895014
 70
    64
  0
SEQEND
  8
I-ROLL
  5
33A
  0
LINE
  8
I-HOLD
  5
33B
 10
170.866722
 20
-148.060969
 30
45.0
 11
60.866722
 21
-148.060969
 31
45.0
  0
LINE
  8
I-HOLD
  5
33D
 10
170.866722
 20
-158.060969
 30
45.0
 11
60.866722
 21
-158.060969
 31
45.0
  0
LINE
  8
I-HOLD
  5
33E
 10
170.866722
 20
-158.060969
 30
5.0
 11
60.866722
 21
-158.060969
 31
5.0
  0
LINE
  8
I-HOLD
  5
345
 10
170.866722
 20
-148.060969
 30
5.0
 11
60.866722
 21
-148.060969
 31
5.0
  0
3DFACE
  8
I-HOLD
  5
34A
 10
170.866722
 20
-148.060969
 30
45.0
 11
170.866722
 21
-148.060969
 31
5.0
 12
60.866722
 22
-148.060969
 32
5.0
 13
60.866722
 23
-148.060969
 33
45.0
  0
3DFACE
  8
I-HOLD
  5
34B
 10
60.866722
 20
-158.060969
 30
45.0
 11
170.866722
 21
-158.060969
 31
45.0
 12
170.866722
 22
-158.060969
 32
5.0
 13
60.866722
 23
-158.060969
 33
5.0
  0
POLYLINE
  8
I-HOLD
  5
34C
 66
     1
 10
0.0
 20
0.0
 30
0.0
 70
    16
 71
     2
 72
     8
  0
VERTEX
  8
I-HOLD
  5
34D
 10
60.866722
 20
-158.060969
 30
45.0
 70
    64
  0
VERTEX
  8
I-HOLD
  5
34E
 10
60.866722
 20
-157.565814
 30
47.169419
 70
    64
  0
VERTEX
  8
I-HOLD
  5
34F
 10
60.866722
 20
-156.178418
 30
48.909157
 70
    64
  0
VERTEX
  8
I-HOLD
  5
350
 10
60.866722
 20
-154.173574
 30
49.87464
 70
    64
  0
VERTEX
  8
I-HOLD
  5
351
 10
60.866722
 20
-151.948365
 30
49.87464
 70
    64
  0
VERTEX
  8
I-HOLD
  5
352
 10
60.866722
 20
-149.94352
 30
48.909157
 70
    64
  0
VERTEX
  8
I-HOLD
  5
353
 10
60.866722
 20
-148.556125
 30
47.169419
 70
    64
  0
VERTEX
  8
I-HOLD
  5
354
 10
60.866722
 20
-148.060969
 30
45.0
 70
    64
  0
VERTEX
  8
I-HOLD
  5
355
 10
170.866722
 20
-158.060969
 30
45.0
 70
    64
  0
VERTEX
  8
I-HOLD
  5
356
 10
170.866722
 20
-157.565814
 30
47.169419
 70
    64
  0
VERTEX
  8
I-HOLD
  5
357
 10
170.866722
 20
-156.178418
 30
48.909157
 70
    64
  0
VERTEX
  8
I-HOLD
  5
358
 10
170.866722
 20
-154.173574
 30
49.87464
 70
    64
  0
VERTEX
  8
I-HOLD
  5
359
 10
170.866722
 20
-151.948365
 30
49.87464
 70
    64
  0
VERTEX
  8
I-HOLD
  5
35A
 10
170.866722
 20
-149.94352
 30
48.909157
 70
    64
  0
VERTEX
  8
I-HOLD
  5
35B
 10
170.866722
 20
-148.556125
 30
47.169419
 70
    64
  0
VERTEX
  8
I-HOLD
  5
35C
 10
170.866722
 20
-148.060969
 30
45.0
 70
    64
  0
SEQEND
  8
I-HOLD
  5
35D
  0
POLYLINE
  8
I-HOLD
  5
35E
 66
     1
 10
0.0
 20
0.0
 30
0.0
 70
    16
 71
     2
 72
     8
  0
VERTEX
  8
I-HOLD
  5
35F
 10
60.866722
 20
-158.060969
 30
5.0
 70
    64
  0
VERTEX
  8
I-HOLD
  5
360
 10
60.866722
 20
-157.565814
 30
2.830581
 70
    64
  0
VERTEX
  8
I-HOLD
  5
361
 10
60.866722
 20
-156.178418
 30
1.090843
 70
    64
  0
VERTEX
  8
I-HOLD
  5
362
 10
60.866722
 20
-154.173574
 30
0.12536
 70
    64
  0
VERTEX
  8
I-HOLD
  5
363
 10
60.866722
 20
-151.948365
 30
0.12536
 70
    64
  0
VERTEX
  8
I-HOLD
  5
364
 10
60.866722
 20
-149.94352
 30
1.090843
 70
    64
  0
VERTEX
  8
I-HOLD
  5
365
 10
60.866722
 20
-148.556125
 30
2.830581
 70
    64
  0
VERTEX
  8
I-HOLD
  5
366
 10
60.866722
 20
-148.060969
 30
5.0
 70
    64
  0
VERTEX
  8
I-HOLD
  5
367
 10
170.866722
 20
-158.060969
 30
5.0
 70
    64
  0
VERTEX
  8
I-HOLD
  5
368
 10
170.866722
 20
-157.565814
 30
2.830581
 70
    64
  0
VERTEX
  8
I-HOLD
  5
369
 10
170.866722
 20
-156.178418
 30
1.090843
 70
    64
  0
VERTEX
  8
I-HOLD
  5
36A
 10
170.866722
 20
-154.173574
 30
0.12536
 70
    64
  0
VERTEX
  8
I-HOLD
  5
36B
 10
170.866722
 20
-151.948365
 30
0.12536
 70
    64
  0
VERTEX
  8
I-HOLD
  5
36C
 10
170.866722
 20
-149.94352
 30
1.090843
 70
    64
  0
VERTEX
  8
I-HOLD
  5
36D
 10
170.866722
 20
-148.556125
 30
2.830581
 70
    64
  0
VERTEX
  8
I-HOLD
  5
36E
 10
170.866722
 20
-148.060969
 30
5.0
 70
    64
  0
SEQEND
  8
I-HOLD
  5
36F
  0
POLYLINE
  8
I-ROLL
  5
375
 66
     1
 10
0.0
 20
0.0
 30
0.0
 70
    16
 71
     2
 72
    13
  0
VERTEX
  8
I-ROLL
  5
376
 10
167.970157
 20
-228.300305
 30
70.104986
 70
    64
  0
VERTEX
  8
I-ROLL
  5
377
 10
167.970157
 20
-242.535353
 30
68.230907
 70
    64
  0
VERTEX
  8
I-ROLL
  5
378
 10
167.970157
 20
-255.800305
 30
62.736383
 70
    64
  0
VERTEX
  8
I-ROLL
  5
379
 10
167.970157
 20
-267.191178
 30
53.995859
 70
    64
  0
VERTEX
  8
I-ROLL
  5
37A
 10
167.970157
 20
-275.931703
 30
42.604986
 70
    64
  0
VERTEX
  8
I-ROLL
  5
37B
 10
167.970157
 20
-281.426226
 30
29.340034
 70
    64
  0
VERTEX
  8
I-ROLL
  5
37C
 10
167.970157
 20
-283.300305
 30
15.104986
 70
    64
  0
VERTEX
  8
I-ROLL
  5
37D
 10
167.970157
 20
-281.426226
 30
0.869939
 70
    64
  0
VERTEX
  8
I-ROLL
  5
37E
 10
167.970157
 20
-275.931703
 30
-12.395014
 70
    64
  0
VERTEX
  8
I-ROLL
  5
37F
 10
167.970157
 20
-267.191178
 30
-23.785887
 70
    64
  0
VERTEX
  8
I-ROLL
  5
380
 10
167.970157
 20
-255.800305
 30
-32.526411
 70
    64
  0
VERTEX
  8
I-ROLL
  5
381
 10
167.970157
 20
-242.535353
 30
-38.020934
 70
    64
  0
VERTEX
  8
I-ROLL
  5
382
 10
167.970157
 20
-228.300305
 30
-39.895014
 70
    64
  0
VERTEX
  8
I-ROLL
  5
383
 10
167.970157
 20
-228.300305
 30
36.104986
 70
    64
  0
VERTEX
  8
I-ROLL
  5
384
 10
167.970157
 20
-233.735505
 30
35.389428
 70
    64
  0
VERTEX
  8
I-ROLL
  5
385
 10
167.970157
 20
-238.800305
 30
33.29152
 70
    64
  0
VERTEX
  8
I-ROLL
  5
386
 10
167.970157
 20
-243.149548
 30
29.954229
 70
    64
  0
VERTEX
  8
I-ROLL
  5
387
 10
167.970157
 20
-246.486839
 30
25.604986
 70
    64
  0
VERTEX
  8
I-ROLL
  5
388
 10
167.970157
 20
-248.584748
 30
20.540186
 70
    64
  0
VERTEX
  8
I-ROLL
  5
389
 10
167.970157
 20
-249.300305
 30
15.104986
 70
    64
  0
VERTEX
  8
I-ROLL
  5
38A
 10
167.970157
 20
-248.584748
 30
9.669786
 70
    64
  0
VERTEX
  8
I-ROLL
  5
38B
 10
167.970157
 20
-246.486839
 30
4.604986
 70
    64
  0
VERTEX
  8
I-ROLL
  5
38C
 10
167.970157
 20
-243.149548
 30
0.255744
 70
    64
  0
VERTEX
  8
I-ROLL
  5
38D
 10
167.970157
 20
-238.800305
 30
-3.081547
 70
    64
  0
VERTEX
  8
I-ROLL
  5
38E
 10
167.970157
 20
-233.735505
 30
-5.179456
 70
    64
  0
VERTEX
  8
I-ROLL
  5
38F
 10
167.970157
 20
-228.300305
 30
-5.895014
 70
    64
  0
SEQEND
  8
I-ROLL
  5
390
  0
POLYLINE
  8
I-ROLL
  5
391
 66
     1
 10
0.0
 20
0.0
 30
0.0
 70
    16
 71
     2
 72
    13
  0
VERTEX
  8
I-ROLL
  5
392
 10
167.970157
 20
-228.300305
 30
70.104986
 70
    64
  0
VERTEX
  8
I-ROLL
  5
393
 10
167.970157
 20
-214.065258
 30
68.230907
 70
    64
  0
VERTEX
  8
I-ROLL
  5
394
 10
167.970157
 20
-200.800305
 30
62.736383
 70
    64
  0
VERTEX
  8
I-ROLL
  5
395
 10
167.970157
 20
-189.409432
 30
53.995859
 70
    64
  0
VERTEX
  8
I-ROLL
  5
396
 10
167.970157
 20
-180.668908
 30
42.604986
 70
    64
  0
VERTEX
  8
I-ROLL
  5
397
 10
167.970157
 20
-175.174385
 30
29.340034
 70
    64
  0
VERTEX
  8
I-ROLL
  5
398
 10
167.970157
 20
-173.300305
 30
15.104986
 70
    64
  0
VERTEX
  8
I-ROLL
  5
399
 10
167.970157
 20
-175.174385
 30
0.869939
 70
    64
  0
VERTEX
  8
I-ROLL
  5
39A
 10
167.970157
 20
-180.668908
 30
-12.395014
 70
    64
  0
VERTEX
  8
I-ROLL
  5
39B
 10
167.970157
 20
-189.409432
 30
-23.785887
 70
    64
  0
VERTEX
  8
I-ROLL
  5
39C
 10
167.970157
 20
-200.800305
 30
-32.526411
 70
    64
  0
VERTEX
  8
I-ROLL
  5
39D
 10
167.970157
 20
-214.065258
 30
-38.020934
 70
    64
  0
VERTEX
  8
I-ROLL
  5
39E
 10
167.970157
 20
-228.300305
 30
-39.895014
 70
    64
  0
VERTEX
  8
I-ROLL
  5
39F
 10
167.970157
 20
-228.300305
 30
36.104986
 70
    64
  0
VERTEX
  8
I-ROLL
  5
3A0
 10
167.970157
 20
-222.865105
 30
35.389428
 70
    64
  0
VERTEX
  8
I-ROLL
  5
3A1
 10
167.970157
 20
-217.800305
 30
33.29152
 70
    64
  0
VERTEX
  8
I-ROLL
  5
3A2
 10
167.970157
 20
-213.451063
 30
29.954229
 70
    64
  0
VERTEX
  8
I-ROLL
  5
3A3
 10
167.970157
 20
-210.113772
 30
25.604986
 70
    64
  0
VERTEX
  8
I-ROLL
  5
3A4
 10
167.970157
 20
-208.015863
 30
20.540186
 70
    64
  0
VERTEX
  8
I-ROLL
  5
3A5
 10
167.970157
 20
-207.300305
 30
15.104986
 70
    64
  0
VERTEX
  8
I-ROLL
  5
3A6
 10
167.970157
 20
-208.015863
 30
9.669786
 70
    64
  0
VERTEX
  8
I-ROLL
  5
3A7
 10
167.970157
 20
-210.113772
 30
4.604986
 70
    64
  0
VERTEX
  8
I-ROLL
  5
3A8
 10
167.970157
 20
-213.451063
 30
0.255744
 70
    64
  0
VERTEX
  8
I-ROLL
  5
3A9
 10
167.970157
 20
-217.800305
 30
-3.081547
 70
    64
  0
VERTEX
  8
I-ROLL
  5
3AA
 10
167.970157
 20
-222.865105
 30
-5.179456
 70
    64
  0
VERTEX
  8
I-ROLL
  5
3AB
 10
167.970157
 20
-228.300305
 30
-5.895014
 70
    64
  0
SEQEND
  8
I-ROLL
  5
3AC
  0
ENDSEC
  0
EOF
